» » »

So Many Animal Calls Bass tabs (ver.1)

Artists:  A B C D E F G H I J K L M N O P Q R S T U V W X Y Z # 

So Many Animal Calls Bass tabs (ver.1)

Q And Not U
Rating:
0/5 (0 votes)

Hard to play? Try these video lessons and learn fast.
                Band: Q And Not U
Normal Tuning: GDAE


First heard a 0:12 (not very important)
G|--------------------------------|
D|--------------------------------|
A|--------------------------------|
E|-------x-----x-----x-----x------|


0:24
G|--------------------------------------|
D|--------------------------------------|
A|--------------------------------------|
E|------4-4-----4-4-----4-4-----4-4-----|x4


0:49
nothing


0:55
G|--------------------------------------|
D|--------------------------------------|
A|--------------------------------------|
E|------4-4-----4-4-----4-4-----4-4-----|x2


1:07
G|----------------------------------------|
D|--------------4---4-----------4---4-----|
A|------6---6-2---2-----4---4-2---2-------|
E|----4---4-----------2---2---------------|x4


1:32
G|--------------9x16-/-12x8-11x8----|
D|--6x16-/-9x16---------------------|
A|----------------------------------|   
E|----------------------------------|


1:44
G|--------------------------------------|
D|--------------------------------------|
A|--------------------------------------|
E|------4-4-----4-4-----4-4-----4-4-----|x2
            
Hard to play? Try these video lessons and learn fast. | Correct




comments powered by Disqus
↑ Back to top | Tablatures and chords are parodies/interpretations of the original songs. You may use it for private study, scholarship, research or language learning purposes only