» » »

Soft Pyramids Bass tabs (ver.1)

Artists:  A B C D E F G H I J K L M N O P Q R S T U V W X Y Z # 

Soft Pyramids Bass tabs (ver.1)

Q And Not U
Rating:
0/5 (0 votes)

Hard to play? Try these video lessons and learn fast.
                Band: Q And Not U
Normal Tuning: GDAE


             lightly
G|----15~~------------13~~----12~~------|
D|------------15~~----------------------|
A|--------------------------------------|
E|--------------------------------------|x6


0:43
G|---------------------------------------------7~~~~~~---------|
D|----9~~~~~~-------7~~~~~~6~~~~~9~~~~~~--------------7~~~~~~--|
A|-----------8~~~~~~--------------------9~~~~~~----------------|
E|-------------------------------------------------------------|x2


1:11
nothing


1:17
G|------------------------------------------------------|
D|------------------------------------------------------|
A|------------------------------------------------------|
E|xxxxxxxxxxxxxxxxxxxxxxxxxxxxxxxxxxxxxxxxxxxxx---------| 


1:33
nothing


1:47
G|------------------------------------------------------|
D|---8-8--------6-6---5--5-----8-8--------6-6---5--5----|
A|--------8------------------------8-8------------------|
E|------------------------------------------------------|


2:01
G|------------------------------------------------------|
D|---8-8-8---8-10-10-10---------------------------------|
A|------------------------8-10-10-10---6/8~~~-6/8~~~\6--|
E|------------------------------------------------------|x4


2:29         lightly
G|----15~~------------13~~----12~~------|
D|------------15~~----------------------|
A|--------------------------------------|
E|--------------------------------------|x2


2:58         lightly
G|----15-15-15-15-15----------------13-13-13-13-13-12-12-12-12-12--|
D|-------------------15-15-15-15-15--------------------------------|
A|-----------------------------------------------------------------|
E|-----------------------------------------------------------------|x4

3:40         lightly 
G|----12-12-12-12-12-12-12-12-12-12-12-12-12-12-12-12-12-12-12---|
D|---------------------------------------------------------------|
A|---------------------------------------------------------------|
E|---------------------------------------------------------------|
            
Hard to play? Try these video lessons and learn fast. | Correct




comments powered by Disqus
↑ Back to top | Tablatures and chords are parodies/interpretations of the original songs. You may use it for private study, scholarship, research or language learning purposes only