» » »

Q And Not U, Snow Patterns Bass tabs (ver.1)

Artists:  A B C D E F G H I J K L M N O P Q R S T U V W X Y Z # 

Snow Patterns Bass tabs (ver.1)

Q And Not U Tabs
Rating:
0/5 (0 votes)
Snow Patterns lessons Tabs too difficult? Try these video lessons and learn fast
                Band: Q And Not U
Normal Tuning: GDAE



G|------------------------------------------------------------------------|
D|------------------------------------------------14-14-14-14-------------|
A|------------------------------------------------------------12-12-12-12-|
E|15-15-15-15-15-15-15-15-15-15-15-15-15-15-15-15-------------------------|

|------------------------------------12--14---------------------------------|
|14-14-14-14-------------12--14--15-----------12----------------------------|
|------------12-12-12-12----------------------------14-14-14-14-14-14-14-14-|
|---------------------------------------------------------------------------|

|----------------------------------------------------|
|----------------------------------------------------|
|13-13-13-13-13-13-13-13-13-13-13-13-13-13-13-13-12--|
|----------------------------------------------------|x2 (from the top)


0:55
G|------------------------------------------------------------------------|
D|------------------------------------------------------------------------|
A|------------------------------------------------------------------------|
E|15-15-15-15-15-15-15-15-15-15-15-15-15-15-15-15-12-12-12-12-12-12-12-12-|

G|------------------------------------------------------------------|
D|------------------------------------------------------------------|
A|----------------------------12--10--------------------------------|
E|12-12-12-12-12-12-12-12-10----------13p12-13-13-13-13-13-13-13-13-|

G|----------------------------------------------------------------------------|
D|----------------------------------------------------------------------------|
A|14-14-14-14-14-14-14-14-13-13-13-13-13-13-13-13-13-13-13-13-13-13-13-13-12--|
E|----------------------------------------------------------------------------|


1:26
G|7/12-------|--------------------------------------------------------------|
D|-----10-12-|---------------10p0-------------------------------------------|
A|-----------|---12-10-12-10---------10--10-------10--10-------------10-12--|
E|-----------|x2------------------12--------10-13--------10-12-12-12--------|


|------------------------------------|
|------------------------------------|
|------------------------------------|
|12~-12-12p10~-10-10h12~-12-12\8--3--|x3


1:59
G|7/12-------|-----------------------------------------------------|
D|-----10-12-|---------------10p0----------------------------------|
A|-----------|---12-10-12-10------------10--10-10-------10--10-10--|
E|-----------|x2------------------12-12-----------13-13------------|


|----------------------------------------------9-12-14-16-16--|
|--------------------------------------------9----------------|
|------------------------------------------9------------------|
|1012-12-12-10-10-10-12-12-12-10-10-10--12--------------------|


2:33
G|16--16--16--16--14-14-14-14-14-14--|--16\-|
D|-----------------------------------|------|
A|-----------------------------------|------|
E|-----------------------------------|x8----|
            

comments powered by Disqus
↑ Back to top | Q And Not U Bass for Snow Patterns. Lyrics for acoustic guitar and electric guitar. Tablatures and chords are parodies/interpretations of the original songs. You may use it for private study, scholarship, research or language learning purposes only