» » »

Q And Not U, Sleeping The Terror Code Bass tabs (ver.1)

Artists:  A B C D E F G H I J K L M N O P Q R S T U V W X Y Z # 

Sleeping The Terror Code Bass tabs (ver.1)

Q And Not U Tabs
 Rating:
4.2/5 (5 votes)
Sleeping The Terror Code lessons Tabs too difficult? Try these video lessons and learn fast
                Band: Q And Not U
Normal Tuning: GDAE


0:05
G|-----------------|
D|9-7--------------|
A|----9-7-9--------|
E|----------9-7-0--|x8


1:13
G|--------------------------------------------------------------|
D|--------------------------------------------------------------|
A|7--------------7--------------7--------------7----------------|
E|--------------------------------------------------------------|x2


1:42 This is played low beneath previous riff
G|-----------------|
D|9-7--------------|
A|----9-7-9--------|
E|----------9-7-0--|x16


2:09
G|-----------------|
D|9-7--------------|
A|----9-7-9--------|
E|----------9-7-0--|x15


2:36
G|---------|
D|---------|
A|7---9----|
E|---------|x4


2:50
G|----------------------------7-------------7---------------|
D|--------------7-------------------------------------------|
A|7---------------------------------------------------------|
E|----------------------------------------------------------|x2

G|----------------------------7-----------------------------|
D|--------------7-------------------------------------------|
A|7---------------------------------------------------------|
E|----------------------------------------------------------|x2

G|----------------------------7-------------7---------------|
D|--------------7-------------------------------------------|
A|7---------------------------------------------------------|
E|----------------------------------------------------------|x2

G|----------------------------------------------------------|
D|----------------------------------------------------------|
A|7---------------------------7-----------------------------|
E|----------------------------------------------------------|x3 (or 4 if you want)
            
Submit corrections

comments powered by Disqus
↑ Back to top | Q And Not U Bass for Sleeping The Terror Code. Lyrics for acoustic guitar and electric guitar. Tablatures and chords are parodies/interpretations of the original songs. You may use it for private study, scholarship, research or language learning purposes only