» » »

Q And Not U, O'no Bass tabs (ver.1)

Artists:  A B C D E F G H I J K L M N O P Q R S T U V W X Y Z # 

O'no Bass tabs (ver.1)

Q And Not U Tabs
Rating:
0/5 (0 votes)
O'no lessons Tabs too difficult? Try these video lessons and learn fast
                Band: Q And Not U
Normal Tuning: GDAE


First heard a 0:19 (not very important)
G|-------|---------------------------------|
D|-------|---------------------------------|
A|-------|---------------------------------|
E|-4h5-2-|---2-0-2---0--202---2-0-4444-0---|x2


0:38
G|---9~-------9766----9~----------------|
D|-67---76--67------67---76-------------|
A|4--------4-------4--------------------|
E|---------------------------5-54-4\----|


0:49
G|---9~-------9-------9~----------------|
D|-67---76--67-766--67---76-------------|
A|4--------4-------4--------------------|
E|---------------------------5554-4\----|x2


1:05
G|---9~--------|
D|-67---76--6--|
A|4--------4---|
E|-------------|
            

comments powered by Disqus
↑ Back to top | Q And Not U Bass for O'no. Lyrics for acoustic guitar and electric guitar. Tablatures and chords are parodies/interpretations of the original songs. You may use it for private study, scholarship, research or language learning purposes only