» » »

Q And Not U, Meet Me In The Pocket Bass tabs (ver.1)

Artists:  A B C D E F G H I J K L M N O P Q R S T U V W X Y Z # 

Meet Me In The Pocket Bass tabs (ver.1)

Q And Not U Tabs
 Rating:
4/5 (4 votes)
Meet Me In The Pocket lessons Tabs too difficult? Try these video lessons and learn fast
                Band: Q And Not U
Normal Tuning: GDAE



G|------------------------------------------------|
D|------------------------------------------------|
A|0--0--0--0--0--0--0--0--3--3--3--3--3--3--3--3--|
E|--0--0--0--0--0--0--0--0--0--0--0--0--0--0--0---|

-----------------------------------------------------|
-----------------------------------------------------|
-0--0--0--0--0--0--0--0--3--3--3--3--3--3--00000000--|
0--0--0--0--0--0--0--0--0--0--0--0--0--0--0----------|


0:33
G|-----------------------|
D|-----------------------|
A|--------02----2/5------|
E|5--53-----------------0|x4


0:48
G|----------------2-----------------|
D|33-333-355-555---33-333-355-555---|
A|----------------------------------|
E|----------------------------------|


0:56
G|-----------------------|
D|-----------------------|
A|--------02----2/5------|
E|5--53-----------------0|x2


1:03
G|------------------|
D|33-333-355--------|
A|-----------33550--|
E|------------------|x4


1:19
G|-----------------------|
D|-----------------------|
A|--------02----2/5------|
E|5--53-----------------0|x4


1:34
G|------------------;------------------|
D|33-333-355--------;33-333-355----35--|
A|-----------33550--;-----------335----|
E|------------------;x3----------------|


1:49
G|--------------------------|
D|--5--5--5-55--5--5--5-55--|
A|0--0--0--0--3--3--3--3----|
E|--------------------------|x4


2:20
G|----------------------------------------------------|
D|----------------------------------------------------|
A|0--0--0--0--0--0--3--3--0--0--0--0--3--3------------|
E|--0--0--0--0--0--0--0--0--0--0--0--0--0--033333333--|


2:35
G|---------------------------------------|
D|------------------------5--------57----|
A|0---30-----0----------3---3-----7--5---|
E|---------------------------------------|x3


3:21
G|------------------;------------------|
D|33-333-355--------;33-333-355----35--|
A|-----------33550--;-----------335----|
E|------------------;x3----------------|


3:36
G|--------------------------|
D|--5--5--5-55--5--5--5-55--|
A|0--0--0--0--3--3--3--3----|
E|--------------------------|x4
            
Submit corrections

comments powered by Disqus
↑ Back to top | Q And Not U Bass for Meet Me In The Pocket. Lyrics for acoustic guitar and electric guitar. Tablatures and chords are parodies/interpretations of the original songs. You may use it for private study, scholarship, research or language learning purposes only