>
 >
Kiss Distinctly American

Kiss Distinctly American Guitar Tabs

Q And Not U - Kiss Distinctly American chords, tabs, tablatures, lyrics

Guitar lessons | Add/correct | Request | Top 50 tabs Artists:  A B C D E F G H I J K L M N O P Q R S T U V W X Y Z 0-9

Kiss Distinctly American Guitar Tabs – Q And Not U

CD, Sheet music, Poster

Do you like Kiss Distinctly American? Share with your friends now
Tabs
Vincent

Great song!
In the beginning the guitar is played really soft, the bass does the most of the work. 
not 100% accurate, they play a lot of variations!

intro/verse part 1
e|----------------------------------------------------------|
B|----------------------------------------------------------|
G|----------------------------------------------------------|
D|----------------------------------------------------------|
A|-----12---3----12---5----12---10----12---5----------------|
E|----------------------------------------------------------|
Bass:  A    C    G    D    A    C     G    D

verse part 2, play 2 times
e|----------------------------------------------------------|
B|----------------------------------------------------------|
G|----------------------------------------------------------|
D|----------------------------------------------------------|
A|-------5/7---10/12---3/5----------------------------------|
E|---------------------------3/1----------------------------|
Bass:    D     G       C     F

Chorus 1: (This is fantastic.....)
e|-------------------------------|
B|-------------------------------|
G|-------------------------------|
D|----7--------------------------|
A|----8--------------------------|
E|-------------------------------|
Bass: F

Instrumental 1:
Guitar 1
e|---0--0---0-----0-----0--------0---0---0-------------|
B|---5/7---/8----/10---/12x3----5--3--1p0-------------|
G|-----------------------------------------------------|
D|-----------------------------------------------------|
A------------------------------------------------------|
E|-----------------------------------------------------|

Guitar 2
e|-------------------------------------------------|
B|------------------------------(7)----------------|
G|-------(7)------(7)------(7)---------------------|
D|-----------(7)------(7)--------------------------|
A|-------------------------------------------------|
E|-------------------------------------------------|

Chorus 2 :
Guitar 2 continious his harmonics, further it's the same as above

Verse 2:
e|----0---0---0---0----0----------0---0---0---0--0------------|
B|----x---x---x---x----x----------x---x---x---0--0------------|
G|----9-/-11-/12/-14-/-16---------9--7--5--4--4---------------|
D|----x---x---x---x----x------x3--x---x---x---x---------------|
A|----7-/-9--/10/-12-/-14---------7--5--3--2------------------|
E|------------------------------------------------------------|

Chorus 3: (This is fantastic.....)
e|----0--------------------------|
B|----0--------------------------|
G|----4--------------------------|
D|----3--------------------------|
A|----x--------------------------|
E|----1--------------------------|
Bass: F

Instrumental 2/outro:
guitar 1
e|-----0----0----0----0------0----0----0----0-------------------|
B|-----0----0----0----0------0----0----0----0-------------------|
G|-----9----7----0----0------9----7----4----2-------------------|
D|-----x----x----5----7------x----x----5----3-------------------|
A|-----x----5----0----0------x----5----x----x-------------------|
E|-----8---------------------8---------3----1-------------------|

guitar 2
e|-----0---------0----0------0---------0----0-------------------|
B|-----0---(7)b--0----0------0---(7)b--0----0-------------------|
G|-----9---(7)b--0----2------9---(7)b--0----0-------------------|
D|-------------------------------------5----3-------------------|
A|--------------------------------------------------------------|
E|--------------------------------------------------------------|
Bend the harmonics on your bridge

End with:
e|----0--------------------------|
B|----0--------------------------|
G|----4--------------------------|
D|----3--------------------------|
A|----x--------------------------|
E|----1--------------------------|
For guitar 1 and 2

Have fun!





Comments


Popular Q And Not U tabs & chords
Black Plastic Bag Bass Tabs
Meet Me In The Pocket Bass Tabs
O'no Bass Tabs
Recreation Myth Bass Tabs
Sleeping The Terror Code Bass Tabs
Snow Patterns Bass Tabs
Soft Pyramids Bass Tabs
And The Washington Monument Blinks Goodnight Tabs
Collect The Diamonds Tabs
Nine Things Everybody Knows Tabs


Song lyrics



↑ Back to top | Tablatures and chords are parodies/interpretations of the original songs. You may use it for private study, scholarship, research or language learning purposes only
© 2014 AZChords.com Contact us | Privacy policy | DMCA | Add/correct tabs | Request tabs | Top 50 tabs