» » »

Q And Not U, Everybody Ruins Bass tabs (ver.1)

Artists:  A B C D E F G H I J K L M N O P Q R S T U V W X Y Z # 

Everybody Ruins Bass tabs (ver.1)

Q And Not U Tabs
Rating:
0/5 (0 votes)
Everybody Ruins lessons Tabs too difficult? Try these video lessons and learn fast
                Band: Q And Not U
Normal Tuning: GDAE



G|-----|
D|-----|
A|-7---|
E|-----|x6


0:48
G|------------------------------------7---7--|
D|------------5---7---5---7---9---9----------|
A|-7-7-7-7--7---7---7---7---7---7---7---7----|
E|-------------------------------------------|


0:58
G|------------------|
D|------------------|
A|7777777-55555555--|
E|-------7----------|x9

G|------------------|
D|--------55555555--|
A|7777777-----------|
E|-------7----------|

G|------------------|
D|------------------|
A|7777777-55555555--|
E|-------7----------|

G|------------------|
D|--------55555555--|
A|7777777-----------|
E|-------7----------|

G|---------------------------------------------------------------------|
D|------------------------------------------55555555-------------------|
A|7-7-7-7-55555555-7-7-7-7-55555555-7-7-7-7----------7-7-7-7-7777755---|
E|------------------------------------------------------------------7--|
            
Submit corrections

comments powered by Disqus
↑ Back to top | Q And Not U Bass for Everybody Ruins. Lyrics for acoustic guitar and electric guitar. Tablatures and chords are parodies/interpretations of the original songs. You may use it for private study, scholarship, research or language learning purposes only