» » »

Q And Not U, Black Plastic Bag Bass tabs (ver.1)

Artists:  A B C D E F G H I J K L M N O P Q R S T U V W X Y Z # 

Black Plastic Bag Bass tabs (ver.1)

Q And Not U Tabs
 Rating:
4/5 (4 votes)
Black Plastic Bag lessons Tabs too difficult? Try these video lessons and learn fast
                Band: Q And Not U
Normal Tuning: GDAE


second time around play the ( )
G|----------------------------------------------|
D|5555555---5555555---5555555---7777777-0-(0)---|
A|------------------------------------------(0)-|
E|----------------------------------------------|x2


0:12
G|----------------------------------------------------|
D|----------------------------------9--9--------------|
A|-7-7-7-----------10-10-10-10-10-10-----10------7-7--|
E|-------7-7-7-7--------------------------------------|x4


0:36
G|------------------------------;  -------------------------------|
D|------------------------------;  -------------------------------|
A|-7-7-7------------5-5-5-3-3-3-;  7-7-7-5-5-5--------------------|
E|-------5-5-7-7----------------;x3------------0-3-3-3-0-5-5-5-0--|x2(<--total 2 times)


1:00    second time around play the ( )
G|----------------------------------------------|
D|5555555---5555555---5555555---7777777-0-(0)---|
A|------------------------------------------(0)-|
E|----------------------------------------------|x2


1:12
G|----------------;  --------------------| 
D|----------------;  ---------------57---| 
A|7-7-7-7-7----5-5;  7-7-7-7-7----50-----| 
E|----------057---;x3----------057-------|x2(<--total 2 times)


1:36
G|-----------------------------------|
D|5-5-5-5-5-5-5-5-7-7-7-7------------|
A|-------------------------10-7------|
E|------------------------------10-0-|


1:42
G|------------------------------;  -------------------------------|
D|------------------------------;  -------------------------------|
A|-7-7-7------------5-5-5-3-3-3-;  7-7-7-5-5-5--------------------|
E|-------5-5-7-7----------------;x3------------0-3-3-3-0-5-5-5-0--|x2(<--total 2 times) 


2:06
G|--------------------------------|
D|-------5------7-----------------|
A|--7-----------------------------|
E|--------------------------------|
            
Submit corrections

comments powered by Disqus
↑ Back to top | Q And Not U Bass for Black Plastic Bag. Lyrics for acoustic guitar and electric guitar. Tablatures and chords are parodies/interpretations of the original songs. You may use it for private study, scholarship, research or language learning purposes only