>
 >
And The Washington Monument Blinks Goodnight

And The Washington Monument Blinks Goodnight Guitar Tabs

Q And Not U - And The Washington Monument Blinks Goodnight chords, tabs, tablatures, lyrics

Guitar lessons | Add/correct | Request | Top 50 tabs Artists:  A B C D E F G H I J K L M N O P Q R S T U V W X Y Z 0-9

And The Washington Monument Blinks Goodnight Guitar Tabs – Q And Not U

CD, Sheet music, Poster

Do you like And The Washington Monument Blinks Goodnight? Share with your friends now
Tabs


Tuning: Drop D
Verse part1 4 times
e|----------------------------------------------------------------|
B|----------------------------------------------------------------|
G|----------------------------------------------------------------|
D|-----------16-----16--------------------11----11----x4----------|
A|---0h12h14---14------x4-----------------------------------------|
D|-------------------------------0h7h9-------9--------------------|

Verse part2 6 times
e|-------------------------------------------------------|
B|-------------------------------------------------------|
G|-------------------------------------------------------|
D|----------------12--12---11----------------------------|
A|------0h7h9--------9---9-------------------------------|
D|-------------------------------------------------------|

Verse part3 2 times
e|---------------------------------------------------------|
B|---------------------------------------------------------|
G|---------------------------------------------------------|
D|----------------16x4-------------12--12--11----x2-------|
A|---0h12h14----------------0h7h9------9---9---------------|
D|---------------------------------------------------------|

Break
e|---0------0-----0----------------------------|
B|---0------0-----0----------------------------|
G|---11-----4-----7----------------------------|
D|---x------x-----x----------------------------|
A|---9------2-----5----------------------------|
D|---------------------------------------------|

e|-----------------------------------------------|
B|-----------------------------------------------|
G|----7-7-7-7-7-7-7-7-7-7-7-7-7-7----------------|
D|-----------------------------------------------|
A|-----------------------------------------------|
D|-----------------------------------------------|

Laed riff for the second part off the song
e|-----------------------------------------------------------|
B|-----------------------------------------------------------|
G|-----------------------------------------------------------|
D|-----------------------------------------------------------|
A|---7---5---5-5-5p4--0-02p0h2---/7--5--4/12~~~~/14---------|
D|-----------------------------------------------------------|
Play this through the whole last part of the song with some variations

e|---0-------------0-------0----------------------|
B|---0-------------0-------0----------------------|
G|---4-------------7-------7----------------------|
D|---x-------------x-------x----------------------|
A|---2-------------5-------4----------------------|
D|------------------------------------------------|
     B             D(with some C# on the end of the measure)
These are the basic chords off the rythym guitarist I think. With variations.
These guys are just too good.

End with:
e|---0-------0-------0------------|
B|---0-------0-------0------------|
G|---9-------4-------7------------|
D|---x-------x-------x------------|
A|---7-------2-------5------------|
D|--------------------------------|

Greetings





Comments


Popular Q And Not U tabs & chords
Air Conditions Bass Tabs
Meet Me In The Pocket Bass Tabs
O'no Bass Tabs
Sleeping The Terror Code Bass Tabs
Snow Patterns Bass Tabs
So Many Animal Calls Bass Tabs
Y Plus White Girls Bass Tabs
Collect The Diamonds Tabs
Nine Things Everybody Knows Tabs
Wonderful People Intro Tabs


Song lyrics



↑ Back to top | Tablatures and chords are parodies/interpretations of the original songs. You may use it for private study, scholarship, research or language learning purposes only
© 2014 AZChords.com Contact us | Privacy policy | DMCA | Add/correct tabs | Request tabs | Top 50 tabs