» » »

Q And Not U, Air Conditions Bass tabs (ver.1)

Artists:  A B C D E F G H I J K L M N O P Q R S T U V W X Y Z # 

Air Conditions Bass tabs (ver.1)

Q And Not U Tabs
 Rating:
4.2/5 (5 votes)
Air Conditions lessons Tabs too difficult? Try these video lessons and learn fast
                Band: Q And Not U
Normal Tuning: GDAE


0:30
G|------------------------------------------------------------------------|
D|--------------------------------7-7-7-7-7-7-7-7-7-7-7-7-7-7-7-0---------|
A|7-7-7-7-7-7-7-7-7-7-7-7-7-7-7-7---------------------------------9-9-9-9-|
E|------------------------------------------------------------------------|

|---------------------------------------------------------------------------------|
|---------------------------------------------------------------------------------|
|9-9-9-9-10-10-10-10-10-10-10-10--------------------------------------------------|
|--------------------------------10-10-10-10-10-10-10-10-10-10-10-10-10-10-10-10--|x2


1:02 to 1:34
G|----x------x------x------x--|
D|---x------x------x------x---|
A|--x------x------x------x----|
E|-x------x------x------x-----|


1:34
nothing


1:49
G|--------------------------------------------------------------------------------|
D|--------------------------------7-7-7-7-7-7-7-7-7-7-7-7-7-7-7-0-----------------|
A|7-7-7-7-7-7-7-7-7-7-7-7-7-7-7-7---------------------------------7-7-7-7-7-7-7-7-|
E|--------------------------------------------------------------------------------|

|----------------------------------------------------------------------------|
|----------------7-7-7-7-7-7-7-7-7-7-7-7-7-7-7-0-----------------------------|
|7-7-7-7-7-7-7-7---------------------------------9-9-9-9-9-9-9-9-10-10-10-10-|
|----------------------------------------------------------------------------|

|----------------------------------------------------------------------------|
|----------------------------------------------------------------------------|
|10-10-10-10-------------------------------------------------9-9-9-9-9-9-9-9-|
|------------10-10-10-10-10-10-10-10-10-10-10-10-10-10-10-10-----------------|

|-------------------------------------------------------------------------|
|-------------------------------------------------------------------------|
|10-10-10-10-10-10-10-10--------------------------------------------------|
|------------------------10-10-10-10-10-10-10-10-10-10-10-10-10-10-10-10--|


2:21
nothing


2:50
G|----------------------------------------------------------------------------------|
D|--9-7-5-7--------------9-7-5-7---7-7-5-----9-7-5-7--------------9-7-5-7-----------|
A|7---------0-5-7-7--0-7---------7-------0-7---------0-5-7-7--0-7---------0-5-5-3-0-|
E|----------------------------------------------------------------------------------|x3

this fades
G|---------------------------------------------------------------------------------
D|--9-7-5-7--------------9-7-5-7---7-7-5-----9-7-5-7--------------9-7-5-7----------
A|7---------0-5-7-7--0-7---------7-------0-7---------0-5-7-7--0-7---------0-5---2--
E|-------------------------------------------------------------------------3-3-0-0-

----------------------------------------|
--9-7-5-7--------------9-7-5-7---7-7-5--|
7---------0-5-7-7--0-7---------7--------|
----------------------------------------|
            
Submit corrections

comments powered by Disqus
↑ Back to top | Q And Not U Bass for Air Conditions. Lyrics for acoustic guitar and electric guitar. Tablatures and chords are parodies/interpretations of the original songs. You may use it for private study, scholarship, research or language learning purposes only