» » »

Pussycat Dolls, Jai Ho Tabs (ver.2)

Artists:  A B C D E F G H I J K L M N O P Q R S T U V W X Y Z # 

Jai Ho Tabs (ver.2)

Pussycat Dolls Tabs
 Rating:
3.6/5 (5 votes)
Jai Ho lessons Tabs too difficult? Try these video lessons and learn fast
                JAI HO..

e------------------------------------------------------------------------|
B------------------------------------------------------------------------|
G----------------------------88--------------3335557778-8_10---10_13--12-|
D--5655655655655655------65-35566----------------------------------------|(2x)
A------------------------------------------------------------------------|
E------------------------------------------------------------------------|
music ( play it very fast 8_10 and 10_13 take slur there )


e------------------------------------------------|
B------------------------------------------------|
G---577---9------7----7_12-----------------------|
D------------------------------------------------|
A------------------------------------------------|
E------------------------------------------------|
jai hoooooo jai haoooooooooo (chorus)


e----------------------------------------------------------|
B------------------------------------------------5-8-7-5---|
G---7--7--7—7--7--7--9955----------5--5--5--5--5-5-------7-|
D----7--7--7--7--7--------------------5--5--5--5-----------|
A----------------------------------------------------------|
E----------------------------------------------------------|
catch me catch me catch me......


e------------------------------------------------------------------------|
B------------------------------------------------------------------------|
G----------------------------88--------------3335557778-8_10---10_13--12-|
D--5655655655655655------65-35566----------------------------------------|(2x)
A------------------------------------------------------------------------|
E------------------------------------------------------------------------|
music ( play it very fast 8_10 and 10_13 take slur there )
            
Submit corrections

comments powered by Disqus
↑ Back to top | Pussycat Dolls Tabs for Jai Ho. Lyrics for acoustic guitar and electric guitar. Tablatures and chords are parodies/interpretations of the original songs. You may use it for private study, scholarship, research or language learning purposes only