» » »

Puscifer, The Humbling River Tabs (ver.1)

Artists:  A B C D E F G H I J K L M N O P Q R S T U V W X Y Z # 

The Humbling River Tabs (ver.1)

Puscifer Tabs
 Rating:
4.4/5 (7 votes)
The Humbling River lessons Tabs too difficult? Try these video lessons and learn fast
                The first 3½ lines make up the main bulk of the song, with only a couple other parts


Play the Main Part three times at first


Main Part
E|----------------------------------------------------------------|
B|----------------------------------------------------------------|
G|----------------------------------------------------------------|
D|----4-----4---------4-------4-----4---------4-----4---------4---|
A|4-----------4---0---------------------------------------0-------|
E|------------------------2-----------2---2-----------2-----------|
			  	  * Words enter

E|----------------------------------------------------------------|
B|----------------------------------------------------------------|
G|----------------------------------------------------------------|
D|--4---------4-------4-----4---------4-----4---------4-----4-----|
A|----0---2---------------------------------------4-----------4---|
E|----------------2-----------2---2-----------2-------------------|

E|----------------------------------------------------------------|
B|----------------------------------------------------------------|
G|----------------------------------------------------------------|
D|----4-------4-----4---------4-----4---------4-----4---------4---|
A|0---------------------------------------------------------------|
E|--------2-----------2---2-----------2---0-----------0---2-------|

E|------------------------|
B|------------------------|
G|------------------------|
D|--4---------4-----4-----|
A|------------------------|
E|----2---2-----------2---|


Then play Interlude						 		  


Interlude
E|----------------------------------------------------------------|
B|----------------------------------------------------------------|
G|----------------------------------------------------------------|
D|----4-----4---------4-----4---------4-----4---------4-----4-----|
A|----------------------------------------------------------------|
E|0-----------0---2-----------2---2-----------2---0-----------0---|

						   
E|--------------------------------|
B|--------------------------------|
G|--------------------------------|
D|----4-----4---------4-----4-----|
A|--------------------------------|
E|2-----------2---2-----------2---| 

Then play Main Part again

Then play Interlude two times

Then continue to repeat the Main Part many times (Six times, I believe)

Then play the Outro Part four times and you’re done

Outro Part
E|----------------------------------------------------------------|
B|----------------------------------------------------------------|
G|----------------------------------------------------------------|
D|----4-----4---------4-------4-----4---------4-----4---------4---|
A|4-----------4---0-----------------------------------------------|
E|------------------------2-----------2---2-----------2---0-------|

E|----------------------------------------|
B|----------------------------------------|
G|----------------------------------------|
D|--4---------4-----4---------4-----4-----|
A|----------------------------------------|
E|----0---2-----------2---2-----------2---|
            
Submit corrections

comments powered by Disqus
↑ Back to top | Puscifer Tabs for The Humbling River. Lyrics for acoustic guitar and electric guitar. Tablatures and chords are parodies/interpretations of the original songs. You may use it for private study, scholarship, research or language learning purposes only