» » »

Vulcani Bass tabs (ver.1)

Artists:  A B C D E F G H I J K L M N O P Q R S T U V W X Y Z # 

Vulcani Bass tabs (ver.1)

Punkreas
Rating:
0/5 (0 votes)

Hard to play? Try these video lessons and learn fast.
                Punkreas      
                              
		        -Vulcani- 
                       
		da 'Elettrodomestico'
Partitura per basso.  
G-------------------------------------------
D-------------------------------------------   Introduzione
A----2---------5----------------------------
E-------------------------------------------

G--------------------------------------------
D--2-2-4-5-2-2-------------------------------   giro usato per quasi
A--------------2-2-3-3---3--5-5--3--3---------   tutta la canzone
E--------------------------------------------   (tranne il ritornello) 

G--------------------------------------------
D-(non sono sicuro se siano ripetute o no)---   ritornello (...come 
A--------7------3---5------------------------   vulcani,erutterete 
E----3------5--------------------------------   la vostra energia....)

Ok, questo è quanto.Forse nel ripetere la seconda volta il giro
principale
paletta fa qualche piccola variazione che non riesco però a capire, e
anche
nel ritornello *FORSE* aggiunge qualcosa. Comunque, più o meno.....
            
Hard to play? Try these video lessons and learn fast. | Correct




comments powered by Disqus
↑ Back to top | Tablatures and chords are parodies/interpretations of the original songs. You may use it for private study, scholarship, research or language learning purposes only