» » »

Punkreas, Più Di Voi Bass tabs (ver.1)

Artists:  A B C D E F G H I J K L M N O P Q R S T U V W X Y Z # 

Più Di Voi Bass tabs (ver.1)

Punkreas Tabs
 Rating:
4/5 (4 votes)
Più Di Voi lessons Tabs too difficult? Try these video lessons and learn fast
1
                :
# in-intro # 
G--|0:04--|
D---------|
A---15\---|
E---------|
:
# intro # X2 *=suona 4x
G-----------------------------------------------------------------------|
D----*-------*-------*-------*-------*-------*-------*--------3331100---|
A---3--6654-3--6654-3--6654-3--6654-3--6654-3--6654-3--6654-33----------|
E-----------------------------------------------------------------------|
:
# verse #     %=pausa
G---%%%%%%------------------------------------------------------%%-|
D---%%%%%%-------------7---------------------7------------------%%-|
A---%%%%%%--1h333-13-56--333-13-567-333-13-56--333-13-567-333-13%%-|
E---%%%%%%------------------------------------------------------%%-|
:
Ripeti intro.
:
# pre-chorus #   *=suona 4x
G-------------------------------------------------------------5553322---|
D----*-------*-------*-------*-------*-------*-------*------------------|
A---3--6654-3--6654-3--6654-3--6654-3--6654-3--6654-3--6654-33----------|
E-----------------------------------------------------------------------|
:
# chorus #
G--------------------------------------55332200---------------------------------------|
D---------------------------------3333---------331100-------3333----1-1--------3333---|
A-------8888-----15\-6666-32-1111--------------------33-111------23--3-3-21111--------|
E---666------8-8----------------------------------------------------------------------|
:
Riprti intro.
:
# verse2 #    %=pausa
G----------%%%---------%%%-----------|
D----------%%%---------%%%-----------|
A---333-13-%%%-3333-13-%%%-3333-13---| >Ripeti verse , intro e pre-chorus.
E----------%%%---------%%%-----------|
:
# chorus 2 #
G--------------------------------------55332200-55332200--------------------------------|
D---------------------------------3333------------------------3333----1-1--------3333---|
A-------8888-----15\-6666-32-1111------------------------1111------23--3-3-21111--------|
E---666------8-8------------------------------------------------------------------------|
:
# bridge2 #  *=suona 10X
G------------------*-----------------------*-----*--|
D----*-----*----5-3------*-----*-----*----3----10---|
A---3-----6-------------3-----3-----6---------------|
E---------------------------------------------------|
:
# chorus3 #    %=pausa
G-------------------------------55332200-----------------------------------------%%-|
D-------3333----1-1--------3333---------331100-------3333--------------------3333%%-|
A---111------23--3-3-21111--------------------33-111-----333333-6666-32-1111-----%%-|
E--------------------------------------------------------------------------------%%-|
:
# outro #  *=suona 10X
G----------------*------------------------------|
D----*-----*----3-------------------------------|
A---3-----6-----------1h33-1h33-1h3-1h3--//15---|
E-----------------------------------------------|
:
            
Submit corrections

comments powered by Disqus
↑ Back to top | Punkreas Bass for Più Di Voi. Lyrics for acoustic guitar and electric guitar. 1 Tablatures and chords are parodies/interpretations of the original songs. You may use it for private study, scholarship, research or language learning purposes only