>
 >
Occhi Puntati

Occhi Puntati Guitar Tabs

Punkreas - Occhi Puntati chords, tabs, tablatures, lyrics

Guitar lessons | Add/correct | Request | Top 50 tabs Artists:  A B C D E F G H I J K L M N O P Q R S T U V W X Y Z 0-9

Occhi Puntati Guitar Tabs – Punkreas

CD, Sheet music, Poster

Do you like Occhi Puntati? Share with your friends now
Tabs
 Punkreas - Occhi puntati

 Standard tuning



 P.M. = Palm Mute
 * = Harmonic
 ~ = Vibrato
 b = bending
 P = pull





 Break                      (riff del basso)                    

 e|-------------------------------------------------------------|
 B|-------------------------------------------------------------|
 G|-2-----------------------------------------------------------|
 D|-2-----------------------------------------------------------|
 A|-0-----------------------------------------------------------|
 E|-------------------------------------------------------------|


 
 Verse
 
 e|-------------------------------------------------------------|
 B|-------------------------------------------------------------|
 G|-7-7-7-7-7-7-7---------------5-5-5---------------------------|
 D|-7-7-7-7-7-7-7-5-5-5-5-5-5-5-5-5-5---------------------------|
 A|-5-5-5-5-5-5-5-5-5-5-5-5-5-5-3-3-3-2-3-0---------------------|
 E|---------------3-3-3-3-3-3-3---------------------------------|

 e|-------------------------------------------------------------|
 B|-------------------------------------------------------------|
 G|---------------7-7-7-7-7-7-7---------------5-5-5-------------|
 D|-7-7-7-7-7-7-7-7-7-7-7-7-7-7-5-5-5-5-5-5-5-5-5-5-------------|
 A|-7-7-7-7-7-7-7-5-5-5-5-5-5-5-5-5-5-5-5-5-5-3-3-3-2-3-0-------|
 E|-5-5-5-5-5-5-5---------------3-3-3-3-3-3-3-------------------|
 


 Break                      (riff del basso)                    

 e|-------------------------------------------------------------|
 B|-------------------------------------------------------------|
 G|-2-----------------------------------------------------------|
 D|-2-----------------------------------------------------------|
 A|-0-----------------------------------------------------------|
 E|-------------------------------------------------------------|


 
 Verse
 
 e|-------------------------------------------------------------|
 B|-------------------------------------------------------------|
 G|-7-7-7-7-7-7-7---------------5-5-5---------------------------|
 D|-7-7-7-7-7-7-7-5-5-5-5-5-5-5-5-5-5---------------------------|
 A|-5-5-5-5-5-5-5-5-5-5-5-5-5-5-3-3-3-2-3-0---------------------|
 E|---------------3-3-3-3-3-3-3---------------------------------|

 e|-------------------------------------------------------------|
 B|-------------------------------------------------------------|
 G|---------------7-7-7-7-7-7-7---------------5-5-5-------------|
 D|-7-7-7-7-7-7-7-7-7-7-7-7-7-7-5-5-5-5-5-5-5-5-5-5-------------|
 A|-7-7-7-7-7-7-7-5-5-5-5-5-5-5-5-5-5-5-5-5-5-3-3-3-2-3-0-------|
 E|-5-5-5-5-5-5-5---------------3-3-3-3-3-3-3-------------------|
 


 Chorus 

 e|-------------------------------------------------------------------------|
 B|-------------------------------------------------------------------------|
 G|-2-2-2-2-2-2-2-2-10-10-10-10-10-10-10-10-5-5-5-5-5-5-5-5-----------------|
 D|-2-2-2-2-2-2-2-2-10-10-10-10-10-10-10-10-5-5-5-5-5-5-5-5-5-5-5-5-5-5-5-5-|
 A|-0-0-0-0-0-0-0-0-8--8--8--8--8--8--8--8--3-3-3-3-3-3-3-3-5-5-5-5-5-5-5-5-|
 E|---------------------------------------------------------3-3-3-3-3-3-3-3-|

 e|-------------------------------------------------------------------------|
 B|-------------------------------------------------------------------------|
 G|-2-2-2-2-2-2-2-2-10-10-10-10-10-10-10-10-5-5-5-5-5-5-5-5-7-7-7-7-9-9-9-9-|
 D|-2-2-2-2-2-2-2-2-10-10-10-10-10-10-10-10-5-5-5-5-5-5-5-5-7-7-7-7-9-9-9-9-|
 A|-0-0-0-0-0-0-0-0-8--8--8--8--8--8--8--8--3-3-3-3-3-3-3-3-5-5-5-5-7-7-7-7-|
 E|-------------------------------------------------------------------------|

 e|-------------------------------------------------------------------------|
 B|-------------------------------------------------------------------------|
 G|-2-2-2-2-2-2-2-2-10-10-10-10-10-10-10-10-5-5-5-5-5-5-5-5-----------------|
 D|-2-2-2-2-2-2-2-2-10-10-10-10-10-10-10-10-5-5-5-5-5-5-5-5-5-5-5-5-5-5-5-5-|
 A|-0-0-0-0-0-0-0-0-8--8--8--8--8--8--8--8--3-3-3-3-3-3-3-3-5-5-5-5-5-5-5-5-|
 E|---------------------------------------------------------3-3-3-3-3-3-3-3-|

 e|-------------------------------------------------------------------------|
 B|-------------------------------------------------------------------------|
 G|-2-2-2-2-2-2-2-2-10-10-10-10-10-10-10-10-5-5-5-5-5-5-5-5-7-7-7-7-9-9-9-9-|
 D|-2-2-2-2-2-2-2-2-10-10-10-10-10-10-10-10-5-5-5-5-5-5-5-5-7-7-7-7-9-9-9-9-|
 A|-0-0-0-0-0-0-0-0-8--8--8--8--8--8--8--8--3-3-3-3-3-3-3-3-5-5-5-5-7-7-7-7-|
 E|-------------------------------------------------------------------------|
 


 Interlude   
 
 e|-------------------------------------------------------------|
 B|-------------------------------------------------------------|
 G|-----------------7-7-7---------------------------5-5-5-------| X2
 D|-7-7-7--6-7-6----7-7-7--6-7-6----5-5-5--4-5-4----5-5-5-------|
 A|-7-7-7-----------5-5-5-----------5-5-5-----------3-3-3-2-3-0-|
 E|-5-5-5---------------------------3-3-3-----------------------|



 Verse
 
 e|-------------------------------------------------------------|
 B|-------------------------------------------------------------|
 G|---------------7-7-7-7-7-7-7---------------5-5-5-------------| 
 D|-7-7-7-7-7-7-7-7-7-7-7-7-7-7-5-5-5-5-5-5-5-5-5-5-------------| X2
 A|-7-7-7-7-7-7-7-5-5-5-5-5-5-5-5-5-5-5-5-5-5-3-3-3-2-3-0-------|
 E|-5-5-5-5-5-5-5---------------3-3-3-3-3-3-3-------------------|  
 
 
 
 Break                      (riff del basso)                    

 e|-------------------------------------------------------------|
 B|-------------------------------------------------------------|
 G|-2-----------------------------------------------------------|
 D|-2-----------------------------------------------------------|
 A|-0-----------------------------------------------------------|
 E|-------------------------------------------------------------|



 Verse

 e|-------------------------------------------------------------|
 B|-------------------------------------------------------------|
 G|-7-7-7-7-7-7-7---------------5-5-5---------------------------|
 D|-7-7-7-7-7-7-7-5-5-5-5-5-5-5-5-5-5---------------------------|
 A|-5-5-5-5-5-5-5-5-5-5-5-5-5-5-3-3-3-2-3-0---------------------|
 E|---------------3-3-3-3-3-3-3---------------------------------|
 
 e|-------------------------------------------------------------|
 B|-------------------------------------------------------------|
 G|---------------7-7-7-7-7-7-7---------------5-5-5-------------|
 D|-7-7-7-7-7-7-7-7-7-7-7-7-7-7-5-5-5-5-5-5-5-5-5-5-------------|
 A|-7-7-7-7-7-7-7-5-5-5-5-5-5-5-5-5-5-5-5-5-5-3-3-3-2-3-0-------|
 E|-5-5-5-5-5-5-5---------------3-3-3-3-3-3-3-------------------|



 Pre-solo
                  
 e|-------------------------------------------------------------------------|
 B|-------------------------------------------------------------------------|
 G|-2-2-2-2-2-2-2-2-10-10-10-10-10-10-10-10-5-5-5-5-5-5-5-5-----------------|
 D|-2-2-2-2-2-2-2-2-10-10-10-10-10-10-10-10-5-5-5-5-5-5-5-5-5-5-5-5-5-5-5-5-|
 A|-0-0-0-0-0-0-0-0-8--8--8--8--8--8--8--8--3-3-3-3-3-3-3-3-5-5-5-5-5-5-5-5-|
 E|---------------------------------------------------------3-3-3-3-3-3-3-3-|
   P.M.P.M.P.M.P.M.P.M.P.M.P.M.P.M.P.M.P.M.P.M.P.M.P.M.P.M.P.M.P.M.P.M.P.M...

 e|-------------------------------------------------------------------------|
 B|-------------------------------------------------------------------------|
 G|-2-2-2-2-2-2-2-2-10-10-10-10-10-10-10-10-5-5-5-5-5-5-5-5-7-7-7-7-9-9-9-9-|
 D|-2-2-2-2-2-2-2-2-10-10-10-10-10-10-10-10-5-5-5-5-5-5-5-5-7-7-7-7-9-9-9-9-|
 A|-0-0-0-0-0-0-0-0-8--8--8--8--8--8--8--8--3-3-3-3-3-3-3-3-5-5-5-5-7-7-7-7-|
 E|-------------------------------------------------------------------------|
   P.M.P.M.P.M.P.M.P.M.P.M.P.M.P.M.P.M.P.M.P.M.P.M.P.M.P.M.
 


 Solo

 1°Guitar
 e|-------------------------------------------------------------|
 B|-------------------------------------------------------------|
 G|-------------------------------------------------------------| 
 D|-7*-7*-7~--5*-5*-5~------------5*-5*-5~----5-7---------------| X2
 A|---------------------7*-7*-7~------------7-------------------|
 E|-------------------------------------------------------------|

 e|-------------------------------------------------------------|
 B|-------------------------------------------------------------|
 G|-------------------------------------------------------------|
 D|-7*-7*-5~----5-7--7*-7*-5~----5-7--7*-7*-5~----5-------------|
 A|-----------7----------------7----------------7---7--5-5-3~---|
 E|-------------------------------------------------------------|
                               potete farlo anche legato        
 e|----------------|   |----------------------------------------|
 B|----------------|   |----------------------------------------|
 G|----------------|   |-----------5---5-7b-7p5-----------------|
 D|-------5*-5*-7~-|X3 |-------5-7---7----------7---------------|
 A|-5-7-8----------|   |-5-7-8------------------7---------------|
 E|----------------|   |------------------------5---------------|

 2°Guitar
 e|-------------------------------------------------------------------------|
 B|-------------------------------------------------------------------------|
 G|-2-2-2-2-2-2-2-2-10-10-10-10-10-10-10-10-5-5-5-5-5-5-5-5-----------------|
 D|-2-2-2-2-2-2-2-2-10-10-10-10-10-10-10-10-5-5-5-5-5-5-5-5-5-5-5-5-5-5-5-5-|
 A|-0-0-0-0-0-0-0-0-8--8--8--8--8--8--8--8--3-3-3-3-3-3-3-3-5-5-5-5-5-5-5-5-|
 E|---------------------------------------------------------3-3-3-3-3-3-3-3-|

 e|-------------------------------------------------------------------------|
 B|-------------------------------------------------------------------------|
 G|-2-2-2-2-2-2-2-2-10-10-10-10-10-10-10-10-5-5-5-5-5-5-5-5-7-7-7-7-9-9-9-9-|
 D|-2-2-2-2-2-2-2-2-10-10-10-10-10-10-10-10-5-5-5-5-5-5-5-5-7-7-7-7-9-9-9-9-|
 A|-0-0-0-0-0-0-0-0-8--8--8--8--8--8--8--8--3-3-3-3-3-3-3-3-5-5-5-5-7-7-7-7-|
 E|-------------------------------------------------------------------------|

 e|-------------------------------------------------------------------------|
 B|-------------------------------------------------------------------------|
 G|-2-2-2-2-2-2-2-2-10-10-10-10-10-10-10-10-5-5-5-5-5-5-5-5-----------------|
 D|-2-2-2-2-2-2-2-2-10-10-10-10-10-10-10-10-5-5-5-5-5-5-5-5-5-5-5-5-5-5-5-5-|
 A|-0-0-0-0-0-0-0-0-8--8--8--8--8--8--8--8--3-3-3-3-3-3-3-3-5-5-5-5-5-5-5-5-|
 E|---------------------------------------------------------3-3-3-3-3-3-3-3-|

 e|-------------------------------------------------------------------------|
 B|-------------------------------------------------------------------------|
 G|-2-2-2-2-2-2-2-2-10-10-10-10-10-10-10-10-5-5-5-5-5-5-5-5-7-7-7-7-9-9-9-9-|
 D|-2-2-2-2-2-2-2-2-10-10-10-10-10-10-10-10-5-5-5-5-5-5-5-5-7-7-7-7-9-9-9-9-|
 A|-0-0-0-0-0-0-0-0-8--8--8--8--8--8--8--8--3-3-3-3-3-3-3-3-5-5-5-5-7-7-7-7-|
 E|-------------------------------------------------------------------------|
                      
                            (riff del basso)                    
 e|-------------------------------------------------------------|
 B|-------------------------------------------------------------|
 G|-2-----------------------------------------------------------|
 D|-2-----------------------------------------------------------|
 A|-0-----------------------------------------------------------|
 E|-------------------------------------------------------------|



 Verse                                        

 e|-------------------------------------------------------------|
 B|-------------------------------------------------------------|
 G|-7-7-7-7-7-7-7---------------5-5-5---------------------------|
 D|-7-7-7-7-7-7-7-5-5-5-5-5-5-5-5-5-5---------------------------|
 A|-5-5-5-5-5-5-5-5-5-5-5-5-5-5-3-3-3-2-3-0---------------------|
 E|---------------3-3-3-3-3-3-3---------------------------------|

 e|-------------------------------------------------------------|
 B|-------------------------------------------------------------|
 G|---------------7-7-7-7-7-7-7---------------5-5-5-------------|
 D|-7-7-7-7-7-7-7-7-7-7-7-7-7-7-5-5-5-5-5-5-5-5-5-5-------------|
 A|-7-7-7-7-7-7-7-5-5-5-5-5-5-5-5-5-5-5-5-5-5-3-3-3-2-3-0-------|
 E|-5-5-5-5-5-5-5---------------3-3-3-3-3-3-3-------------------|



 Break                      (riff del basso)                    

 e|-------------------------------------------------------------|
 B|-------------------------------------------------------------|
 G|-2-----------------------------------------------------------|
 D|-2-----------------------------------------------------------|
 A|-0-----------------------------------------------------------|
 E|-------------------------------------------------------------|



 Verse

 e|-------------------------------------------------------------|
 B|-------------------------------------------------------------|
 G|-7-7-7-7-7-7-7---------------5-5-5---------------------------|
 D|-7-7-7-7-7-7-7-5-5-5-5-5-5-5-5-5-5---------------------------|
 A|-5-5-5-5-5-5-5-5-5-5-5-5-5-5-3-3-3-2-3-0---------------------|
 E|---------------3-3-3-3-3-3-3---------------------------------|

 e|-------------------------------------------------------------|
 B|-------------------------------------------------------------|
 G|---------------7-7-7-7-7-7-7---------------5-5-5-------------|
 D|-7-7-7-7-7-7-7-7-7-7-7-7-7-7-5-5-5-5-5-5-5-5-5-5-------------|
 A|-7-7-7-7-7-7-7-5-5-5-5-5-5-5-5-5-5-5-5-5-5-3-3-3-2-3-0-------|
 E|-5-5-5-5-5-5-5---------------3-3-3-3-3-3-3-------------------|



 Outro-Chorus 

 e|-------------------------------------------------------------------------|
 B|-------------------------------------------------------------------------|
 G|-2-2-2-2-2-2-2-2-10-10-10-10-10-10-10-10-5-5-5-5-5-5-5-5-----------------|
 D|-2-2-2-2-2-2-2-2-10-10-10-10-10-10-10-10-5-5-5-5-5-5-5-5-5-5-5-5-5-5-5-5-|
 A|-0-0-0-0-0-0-0-0-8--8--8--8--8--8--8--8--3-3-3-3-3-3-3-3-5-5-5-5-5-5-5-5-|
 E|---------------------------------------------------------3-3-3-3-3-3-3-3-|

 e|-------------------------------------------------------------------------|
 B|-------------------------------------------------------------------------|
 G|-2-2-2-2-2-2-2-2-10-10-10-10-10-10-10-10-5-5-5-5-5-5-5-5-7-7-7-7-9-9-9-9-|
 D|-2-2-2-2-2-2-2-2-10-10-10-10-10-10-10-10-5-5-5-5-5-5-5-5-7-7-7-7-9-9-9-9-|
 A|-0-0-0-0-0-0-0-0-8--8--8--8--8--8--8--8--3-3-3-3-3-3-3-3-5-5-5-5-7-7-7-7-|
 E|-------------------------------------------------------------------------|


 1°Guitar 
 e|-------------------------------------------------------------------------|
 B|-------------------------------------------------------------------------|
 G|-2-2-2-2-2-2-2-2-10-10-10-10-10-10-10-10-5-5-5-5-5-5-5-5-----------------|
 D|-2-2-2-2-2-2-2-2-10-10-10-10-10-10-10-10-5-5-5-5-5-5-5-5-5-5-5-5-5-5-5-5-|
 A|-0-0-0-0-0-0-0-0-8--8--8--8--8--8--8--8--3-3-3-3-3-3-3-3-5-5-5-5-5-5-5-5-|
 E|---------------------------------------------------------3-3-3-3-3-3-3-3-|

 e|-------------------------------------------------------------------------|
 B|-------------------------------------------------------------------------|
 G|-2-2-2-2-2-2-2-2-10-10-10-10-10-10-10-10-5-5-5-5-5-5-5-5-7-7-7-7-9-9-9-9-|
 D|-2-2-2-2-2-2-2-2-10-10-10-10-10-10-10-10-5-5-5-5-5-5-5-5-7-7-7-7-9-9-9-9-|
 A|-0-0-0-0-0-0-0-0-8--8--8--8--8--8--8--8--3-3-3-3-3-3-3-3-5-5-5-5-7-7-7-7-|
 E|-------------------------------------------------------------------------|

 2°Guitar
 e|-5-5-5-5-5-5-5-5-3-3-3-3-3-3-3-3-3-3-3-3-0-0-0-0-0-0-0-0-3-3-3-3-3-3-3-3-|
 B|-------------------------------------------------------------------------|
 G|-------------------------------------------------------------------------|
 D|-------------------------------------------------------------------------|
 A|-------------------------------------------------------------------------|
 E|-------------------------------------------------------------------------|

 e|-5-5-5-5-5-5-5-5-3-3-3-3-3-3-3-3-3-3-3-3-0-0-0-0-0-0-0-0-3-3-3-3-5-5-5-5-|
 B|-------------------------------------------------------------------------|
 G|-------------------------------------------------------------------------|
 D|-------------------------------------------------------------------------|
 A|-------------------------------------------------------------------------|
 E|-------------------------------------------------------------------------|



 End                           
 
 e|---|
 B|---|
 G|---|
 D|-7-|
 A|-7-|
 E|-5-|





 Se volete altre tab basta chiedere...





Comments


Popular Punkreas tabs & chords
Aidid Bass Tabs
Chiapas Bass Tabs
Cosciente Bass Tabs
Elettrosmog Bass Tabs
L Orologio Bass Tabs
Mercato Del Niente Bass Tabs
Più Di Voi Bass Tabs
Vulcani Bass Tabs
Falsi Preoccupati 1 Tabs
Zingari Tabs


Song lyrics



↑ Back to top | Tablatures and chords are parodies/interpretations of the original songs. You may use it for private study, scholarship, research or language learning purposes only
© 2014 AZChords.com Contact us | Privacy policy | DMCA | Add/correct tabs | Request tabs | Top 50 tabs