» » »

Punkreas, L Orologio Bass tabs (ver.1)

Artists:  A B C D E F G H I J K L M N O P Q R S T U V W X Y Z # 

L Orologio Bass tabs (ver.1)

Punkreas Tabs
Rating:
0/5 (0 votes)
L Orologio lessons Tabs too difficult? Try these video lessons and learn fast
                :
# verse # X5  *=suona 4X      # end-verse #  *=suona 4X 
G--------------------------|  G-----------------------|
D----*----*----*-----------|  D----*----*-------------|
A---7----7---10----55335---|  A---7----7---10-5-3-5---|
E--------------------------|  E-----------------------|
:
# chorus #  *=suona 4X 
G--------------------------------------------------------------------------------|
D----*----*----*----*-----*----*---9--9---*----*----*----*-----*-----------------|
A---3---10----7----7----53---10--7---7-753---10----7----7----53-----*----*----*--|
E------------------------------------------------------------------3----2----5---|
:
Ripeti verse X5, end-verse e chorus.
:
# solo-bg #  *=suona 4X 
G-----------------------------------------|
D----*----*----*-----*----*----*----------|
A---3---10----7----53---10----5----5356---|
E-----------------------------------------|
:
Ripeti verse, end-verse e chorus.
:
# bridge #  *=suona 4X 
G-|------7X------|---------------------------------|
D-|--------------|---------------*----*---9--9-----|
A-|-77-777-55----|77-777-55---223---10--7---7-75---|
E-|-----------555|----------5----------------------|
:
Ripeti chorus 
:
# outro # X2  *=suona 4X  (finisci con la prima nota)
G-----------------------------------------------|
D----*----*----*----------*----*----------------|
A---7----7---10----55335-7----7---1010--55335---|
E-----------------------------------------------|
:
            

comments powered by Disqus
↑ Back to top | Punkreas Bass for L Orologio. Lyrics for acoustic guitar and electric guitar. Tablatures and chords are parodies/interpretations of the original songs. You may use it for private study, scholarship, research or language learning purposes only