» » »

Punkreas, Dritto In Faccia Tabs (ver.1)

Artists:  A B C D E F G H I J K L M N O P Q R S T U V W X Y Z # 

Dritto In Faccia Tabs (ver.1)

Punkreas Tabs
 Rating:
4/5 (4 votes)
Dritto In Faccia lessons Tabs too difficult? Try these video lessons and learn fast
                Dritto in faccia    punkreas
D# = E

Verse
Giro 1  A  E  F#  D       x2
Giro 2  A  E  D   D

Chorus
A  F#  F  (E G#)Velox  x2

Verse
Chorus

Strumentale
------------------------------------------------------------------------|
------------------------------------------------------------------------|
------------------------------------------------------------------------|   x2
-----11-12-14-12-11-----11-12-14-12-11-----11-12-14-12-11---------------|
--12-----------------12-----------------12------------------12-11-9-11--|
------------------------------------------------------------------------|

Verse
Chorus
Strumentale

Bridge  Solo basso (Giro 1 del verse x2)
----------------------------------------------------------------------------------------------|
----------------------------------------------------------------------------------------------|
----------------------------------------------------------------------------------------------|
--11----11--9----9--7---7----7/9/11/9-----11----11--14----14--11----11-----11-12-14-12-11-----|
-----12-------11------9----9-----------------12--------14--------12-----12----------------12--|
----------------------------------------------------------------------------------------------|

Chorus x2
Solo
Chorus x4

Verse
Mi son svegliato storto stamattina
Ma non è colpa dell’anfetamina o del caffè
E’ la coscienza pura, immobile e sicura
Che sta parlando dentro me
Chorus
C’è qualcosa che non funziona più
C’è qualcosa che va male
Nella tua tribù, nella tua città,
C’è qualcosa che non va
Verse
Non ci son rose senza spine
Ma rose non ce n’è
E’ una caduta senza fine
E senza limite
La pelle resta dura
Ma sotto è la paura
Che muove i fili anche per te
Chorus
Verse
Giro per la cucina
Cercando di reagire un po’
Faccio promesse
E come sempre
Non le manterrò
Ma questa volta il colpo
Mi ha preso dritto in faccia
Allargo le mie braccia e penso
Che davvero
Chorus
Bridge
E come ogni mattina mi mescolo alla folla
Ad ogni passo c’è una telecamera
E controlla
Che tutto vada bene
Che resti nello schema
Non è la soluzione
E’ solo parte del problema
Chorus x2
            
Submit corrections

comments powered by Disqus
↑ Back to top | Punkreas Tabs for Dritto In Faccia. Lyrics for acoustic guitar and electric guitar. Tablatures and chords are parodies/interpretations of the original songs. You may use it for private study, scholarship, research or language learning purposes only