» » »

Disgusto Totale Bass tabs (ver.1)

Artists:  A B C D E F G H I J K L M N O P Q R S T U V W X Y Z # 

Disgusto Totale Bass tabs (ver.1)

Punkreas
Rating:
0/5 (0 votes)

Hard to play? Try these video lessons and learn fast.
                intro 
G:-------------------------------------------------------
D:------4-7-------4-7------------------------------------
A:-5-5------5-5------------------------------------------
E:-----------------------333-555-------------------------

riff
G:------------7-7-5-5------------------------------------
D:------4-7-----------5-5-4-5-7-4-5-7--------------------
A:--5-5--------------------------------------------------
E:-------------------------------------------------------

ritornello 			solo		
G:--------------------------*----------------------------
D:--------------------------*----------------------------
A:-555555---------------*---------------55555------------
E:-----------333-555----*---0-3-5-------------333-555----

That's it....Sxo vada tutto bene
            
Hard to play? Try these video lessons and learn fast. | Correct




comments powered by Disqus
↑ Back to top | Tablatures and chords are parodies/interpretations of the original songs. You may use it for private study, scholarship, research or language learning purposes only