>
 >
American Dream 1

American Dream 1 Guitar Tabs

Punkreas - American Dream 1 chords, tabs, tablatures, lyrics

Guitar lessons | Add/correct | Request | Top 50 tabs Artists:  A B C D E F G H I J K L M N O P Q R S T U V W X Y Z 0-9

American Dream 1 Guitar Tabs – Punkreas

CD, Sheet music, Poster

Do you like American Dream 1? Share with your friends now
Bass TabsTabsTabs v2
 Punkreas - American dream 
 
 Standard tuning


 x - nota stoppata
 ~ - vibrato
 b - bend
 r - bend release
 s - slide/glissato
 h - hammer on
 p - pull off
 * - armonico
 P.M. - palm mute 
 

                                         

 Pre-Intro

 1°Guitar
 e|-------------------------------------------------------------|
 B|-------------------------------------------------------------|
 G|-6-6--6-6-6--6-6-6--6-6-6--6-6-6--6-6-6--6-6-6--6-6-6--6-6-6-|...
 D|-x-x--x-x-x--x-x-x--x-x-x--x-x-x--x-x-x--x-x-x--x-x-x--x-x-x-|
 A|-4-4--4-4-4--4-4-4--4-4-4--4-4-4--4-4-4--4-4-4--4-4-4--4-4-4-|
 E|-------------------------------------------------------------|

 2°Guitar
 e|-------------------------------------------------------------|
 B|-------------------------------------------------------------|
 G|-------------------------------------------------------------|
 D|-------------------------------------------------------------|
 A|-------------------------------------------------------------|
 E|----------------------------------------------------xxxxxxxx-|
                               strisciate il plettro sulla corda 


 Intro
 
 1°Guitar
 e|-------------------------------------------------------|
 B|-------------------------------------------------------|
 G|-6-6-6-6-6-6-11-11-11-11-11-11-9-9-9-9-9-9-8-8-8-4-4-4-|
 D|-x-x-x-x-x-x-x--x--x--x--x--x--x-x-x-x-x-x-x-x-x-x-x-x-| 
 A|-4-4-4-4-4-4-9--9--9--9--9--9--7-7-7-7-7-7-6-6-6-2-2-2-|
 E|-------------------------------------------------------|

 e|-------------------------------------------------------|
 B|-----------4*------------------------------------------|*armonico
 G|-6-6-6-6-6---11-11-11-11-11-11-9-9-9-9-9-9-8-8-8-4-4-4-| naturale
 D|-x-x-x-x-x---x--x--x--x--x--x--x-x-x-x-x-x-x-x-x-x-x-x-| 
 A|-4-4-4-4-4---9--9--9--9--9--9--7-7-7-7-7-7-6-6-6-2-2-2-|
 E|-------------------------------------------------------|
 
 2°Guitar
 e|-------------------------------------------------------|
 B|-------------------------------------------------------|
 G|-------------4-4-4-4-4-4-2-2-2-2-2-2-------------------| x2
 D|-4-4-4-4-4-4-4-4-4-4-4-4-2-2-2-2-2-2-6-6-6-2-2-2-------|
 A|-4-4-4-4-4-4-2-2-2-2-2-2-0-0-0-0-0-0-6-6-6-2-2-2-------|
 E|-2-2-2-2-2-2-------------------------4-4-4-0-0-0-------|

 

 Verse

 1°Guitar
 e|-------------------------------------------------------|
 B|-------------------------------------------------------|
 G|-------------------------------------------------------|
 D|--6-6--6-6-6--6-6-6--6-6-6--6--------------------------|
 A|--4-4--4-4-4--4-4-4--4-4-4--4--7-6-7-6-4--9-8-9-8-6----|
 E|-------------------------------5-4-5-4-2--7-6-7-6-4----|
    P.M.P.M.P.M.P.M.P.M.P.M.P.M.P.M.P.M.P.M.P.M.P.M.P.M.

 2°Guitar
 e|-------------------------------------------------------|
 B|-------------------------------------------------------|
 G|-------------------------------------------------------|
 D|-------------------------------------------------------|
 A|---------------------------------------------x-x-x-11s-|
 E|---------------------------------------------x-x-x--9s-|

 1°Guitar
 e|-------------------------------------------------------|
 B|-------------------------------------------------------|
 G|-------------------------------------------------------|
 D|--6-6--6-6-6--6-6-6--6-6-6--6--------------------------|
 A|--4-4--4-4-4--4-4-4--4-4-4--4--7-6-7-6-4--9-8-9-8-6----|
 E|-------------------------------5-4-5-4-2--7-6-7-6-4----|
    P.M.P.M.P.M.P.M.P.M.P.M.P.M.P.M.P.M.P.M.P.M.P.M.P.M.

 2°Guitar
 e|-------------------------------------------------------|
 B|-------------------------------------------------------|
 G|-------------------------------------------------------|
 D|-------------------------------------------------------|
 A|-------------------------------------------------------|
 E|----------------------------------------------xxxxxxxx-|



 Chorus 

 1°Guitar
 e|-------------------------------------------------------|
 B|-------------------------------------------------------|
 G|-6-6-6-6-6-6-11-11-11-11-11-11-9-9-9-9-9-9-8-8-8-4-4-4-|
 D|-x-x-x-x-x-x-x--x--x--x--x--x--x-x-x-x-x-x-x-x-x-x-x-x-| 
 A|-4-4-4-4-4-4-9--9--9--9--9--9--7-7-7-7-7-7-6-6-6-2-2-2-|
 E|-------------------------------------------------------|

 e|-------------------------------------------------------|
 B|---------4*--------------------------------------------|
 G|-6-6-6-6--4*-11-11-11-11-11-11-9-9-9-9-9-9-8-8-8-4-4-4-|
 D|-x-x-x-x-----x--x--x--x--x--x--x-x-x-x-x-x-x-x-x-x-x-x-| 
 A|-4-4-4-4-----9--9--9--9--9--9--7-7-7-7-7-7-6-6-6-2-2-2-|
 E|-------------------------------------------------------|
 
 2°Guitar
 e|-------------------------------------------------------|
 B|-------------------------------------------------------|
 G|-------------4-4-4-4-4-4-2-2-2-2-2-2-------------------| x2
 D|-4-4-4-4-4-4-4-4-4-4-4-4-2-2-2-2-2-2-6-6-6-2-2-2-------|
 A|-4-4-4-4-4-4-2-2-2-2-2-2-0-0-0-0-0-0-6-6-6-2-2-2-------|
 E|-2-2-2-2-2-2-------------------------4-4-4-0-0-0-------|
 


 Solo 1
 
 1°Guitar
 e|-------------------------------------------------------------|
 B|------------7--7--7------------------------------------------|
 G|-6-6-6-4-6--9b-9b-9b-----------------------------------------|
 D|----------------------2-2-2-4-2-1-2-1------------------------|
 A|--------------------------------------4-2~-4-4-4-2-4---------|
 E|-----------------------------------------------------2-2-2-2~|

 e|-------------------------------------------------------------|
 B|----------------7--7-----------------------------------------|
 G|-x--6-6-6-9-6-9-9b-9b-9-6~-----------------------------------|
 D|-x-----------------------------------------------------------|
 A|-x-----------------------------------------------------------|
 E|-------------------------------------------------------------|

 2°Guitar


 Verse

 1°Guitar
 e|-------------------------------------------------------|
 B|-------------------------------------------------------|
 G|-------------------------------------------------------|
 D|--6-6--6-6-6--6-6-6--6-6-6--6--------------------------|
 A|--4-4--4-4-4--4-4-4--4-4-4--4--7-6-7-6-4--9-8-9-8-6----|
 E|-------------------------------5-4-5-4-2--7-6-7-6-4----|
    P.M.P.M.P.M.P.M.P.M.P.M.P.M.P.M.P.M.P.M.P.M.P.M.P.M.

 2°Guitar
 e|-------------------------------------------------------|
 B|-------------------------------------------------------|
 G|-------------------------------------------------------|
 D|-------------------------------------------------------|
 A|---------------------------------------------x-x-x-11s-|
 E|---------------------------------------------x-x-x--9s-|

 1°Guitar
 e|-------------------------------------------------------|
 B|-------------------------------------------------------|
 G|-------------------------------------------------------|
 D|--6-6--6-6-6--6-6-6--6-6-6--6--------------------------|
 A|--4-4--4-4-4--4-4-4--4-4-4--4--7-6-7-6-4--9-8-9-8-6----|
 E|-------------------------------5-4-5-4-2--7-6-7-6-4----|
    P.M.P.M.P.M.P.M.P.M.P.M.P.M.P.M.P.M.P.M.P.M.P.M.P.M.

 2°Guitar
 e|-------------------------------------------------------|
 B|-------------------------------------------------------|
 G|-------------------------------------------------------|
 D|-------------------------------------------------------|
 A|-------------------------------------------------------|
 E|----------------------------------------------xxxxxxxx-|



 Chorus

 1°Guitar
 e|--------------|   |---------------------------------------|
 B|--------------|   |---------------------------------------|
 G|--6-6-6-6-6-4-|   |-9-9-9-9-9-9-9-9-8-8-8-8-8--4----------|
 D|--------------|x4 |---------------------------------------| 
 A|--------------|   |---------------------------------------|
 E|--------------|   |---------------------------------------|

 e|--------------|   |---------------------------------------|
 B|--------------|   |---------------------------------------|
 G|--6-6-6-6-6-4-|   |-9-9-9-9-9-9-9-9-8-8-8-8-8-------------|
 D|--------------|x4 |------------------------------4--------| 
 A|--------------|   |------------------------------2--------|
 E|--------------|   |---------------------------------------|
 
 2°Guitar
 e|-------------------------------------------------------|
 B|-------------------------------------------------------|
 G|-------------4-4-4-4-4-4-2-2-2-2-2-2-------------------| x2
 D|-4-4-4-4-4-4-4-4-4-4-4-4-2-2-2-2-2-2-6-6-6-2-2-2-------|
 A|-4-4-4-4-4-4-2-2-2-2-2-2-0-0-0-0-0-0-6-6-6-2-2-2-------|
 E|-2-2-2-2-2-2-------------------------4-4-4-0-0-0-------|



 Interlude

 e|----------------------------------------------------------------|
 B|----------------------------------------------------------------|
 G|----------------------------------------------------------------|
 D|--6---------4-6---------4-6---------4-6---------4-6-------------|
 A|--4-4-4-4-4-2-4-4-4-4-4-2-4-4-4-4-4-2-4-4-4-4-4-2-4-4-4-4-4-4-4-|
 E|----------------------------------------------------------------|
       P.M.P.M.    P.M.P.M.    P.M.P.M.    P.M.P.M.    P.M.P.M.P.M.
 
 e|----------------------------------------------------------------|
 B|----------------------------------------------------------------|
 G|----------------------------------------------------------------|
 D|--9-9-9-9-9-9-9-9--11-11-11-11-4-4-4-4--------------------------|
 A|--7-7-7-7-7-7-7-7--9--9--9--9--2-2-2-2--------------------------|
 E|----------------------------------------------------------------|
        

 e|----------------------------------------------------------------|
 B|----------------------------------------------------------------|
 G|----------------------------------------------------------------|
 D|--6---------4-6---------4-6---------4-6---------4-6-------------|
 A|--4-4-4-4-4-2-4-4-4-4-4-2-4-4-4-4-4-2-4-4-4-4-4-2-4-4-4-4-4-4-4-|
 E|----------------------------------------------------------------|
       P.M.P.M.    P.M.P.M.    P.M.P.M.    P.M.P.M.    P.M.P.M.P.M.

 e|----------------------------------------------------------------|
 B|----------------------------------------------------------------|
 G|----------------------------------------------------------------|
 D|--9-9-9-9-9-9-9-9--4-4-4-4-4-4-4-4------------------------------|
 A|--7-7-7-7-7-7-7-7--2-2-2-2-2-2-2-2------------------------------|
 E|----------------------------------------------------------------|



 Breakdown

 e|----------------------------------------------------------|
 B|----------------------------------------------------------|
 G|--6-6-6-7-7-7-6-6-6--7--7----6-6-6-7-7-7-6-6-6--4--4------|
 D|--6-6-6-7-7-7-6-6-6--7--7----6-6-6-7-7-7-6-6-6--4--4------| x2
 A|--4-4-4-5-5-5-4-4-4--5--5----4-4-4-5-5-5-4-4-4--2--2------|
 E|----------------------------------------------------------|

 e|---------------------------|
 B|---------------------------|
 G|--6--6--6--7--7--7--6------|
 D|--6--6--6--7--7--7--6------|
 A|--4--4--4--5--5--5--4------|
 E|---------------------------|  



 Solo 2

 1°Guitar
 e|-------------------------------------------------------------|
 B|---9---9----9----------------------9--------10-9-------------|
 G|---11b-11b--11b-r11-9---------9h11---11--11------11-8~-------|
 D|---------------------11~--11----------------------------s11~-|
 A|-------------------------------------------------------------|
 E|-------------------------------------------------------------|

 e|-------------------------------------------------------------|
 B|-------------------------------------------------------------|
 G|-------------------------------------------------------------|
 D|--s9~--------------------------------------------------------|
 A|-------9h11p9-7h9p7-6----s12-12-12-s16-16-s11~---9h11~-------|
 E|----------------------7--------------------------------------|

 e|-------------------------------------------------------------|
 B|-------------------------------------------------------------|
 G|--------9----11---13--13-13-11-9--9s14-14-14--14-14-14--14-16|
 D|--11-11---11----11-------------------------------------------|
 A|-------------------------------------------------------------|
 E|-------------------------------------------------------------|

                      Armonico artificiale sul 9 solo la 1° volta
 e|----------------------------------------||------------|  |---|
 B|----------------------------------12----||------------|  |---|
 G|14-13-11-13-9~-----13-11-9-----13----11-||------------|x3|---|
 D|----------------11---------11-----------||-14-13-11-9*|  |11~|
 A|----------------------------------------||------------|  |---|
 E|----------------------------------------||------------|  |---|

 

 Dopo il solo
 
 1°Guitar
 e|-------------------------------------------------------------|
 B|-------------------------------------------------------------|
 G|-------------------------------------------------------------|
 D|-------------6-----------s6---s9-----------------------------|
 A|-s11---s9----4-----------------------------------------------|
 E|-------------------------------------------------------------|

 2°Guitar
 e|-------------------------------------------------------------|
 B|-------------------------------------------------------------|
 G|-------------6~---4h6----------------------------------------|
 D|-------------------------s6---s9-----------------------------|
 A|-s11---s9----------------------------------------------------|
 E|-------------------------------------------------------------|




 Chorus

 1°Guitar
 e|--------------|   |---------------------------------------|
 B|--------------|   |---------------------------------------|
 G|--6-6-6-6-6-4-|   |-9-9-9-9-9-9-9-9-8-8-8-8-8--4----------|
 D|--------------|x4 |---------------------------------------| 
 A|--------------|   |---------------------------------------|
 E|--------------|   |---------------------------------------|

 e|--------------|   |---------------------------------------|
 B|--------------|   |---------------------------------------|
 G|--6-6-6-6-6-4-|   |-9-9-9-9-9-9-9-9-8-8-8-8-8-------------|
 D|--------------|x4 |------------------------------4--------| 
 A|--------------|   |------------------------------2--------|
 E|--------------|   |---------------------------------------|
 
 2°Guitar
 e|-------------------------------------------------------|
 B|-------------------------------------------------------|
 G|-------------4-4-4-4-4-4-2-2-2-2-2-2-------------------| x2
 D|-4-4-4-4-4-4-4-4-4-4-4-4-2-2-2-2-2-2-6-6-6-2-2-2-------|
 A|-4-4-4-4-4-4-2-2-2-2-2-2-0-0-0-0-0-0-6-6-6-2-2-2-------|
 E|-2-2-2-2-2-2-------------------------4-4-4-0-0-0-------|



 Interlude

 e|----------------------------------------------------------------|
 B|----------------------------------------------------------------|
 G|----------------------------------------------------------------|
 D|--6---------4-6---------4-6---------4-6---------4-6-------------|
 A|--4-4-4-4-4-2-4-4-4-4-4-2-4-4-4-4-4-2-4-4-4-4-4-2-4-4-4-4-4-4-4-|
 E|----------------------------------------------------------------|
       P.M.P.M.    P.M.P.M.    P.M.P.M.    P.M.P.M.    P.M.P.M.P.M.
 
 e|----------------------------------------------------------------|
 B|----------------------------------------------------------------|
 G|----------------------------------------------------------------|
 D|--9-9-9-9-9-9-9-9--11-11-11-11-4-4-4-4--------------------------|
 A|--7-7-7-7-7-7-7-7--9--9--9--9--2-2-2-2--------------------------|
 E|----------------------------------------------------------------|
        

 e|----------------------------------------------------------------|
 B|----------------------------------------------------------------|
 G|----------------------------------------------------------------|
 D|--6---------4-6---------4-6---------4-6---------4-6-------------|
 A|--4-4-4-4-4-2-4-4-4-4-4-2-4-4-4-4-4-2-4-4-4-4-4-2-4-4-4-4-4-4-4-|
 E|----------------------------------------------------------------|
       P.M.P.M.    P.M.P.M.    P.M.P.M.    P.M.P.M.    P.M.P.M.P.M.

 e|----------------------------------------------------------------|
 B|----------------------------------------------------------------|
 G|----------------------------------------------------------------|
 D|--9-9-9-9-9-9-9-9--4-4-4-4-4-4-4-4------------------------------|
 A|--7-7-7-7-7-7-7-7--2-2-2-2-2-2-2-2------------------------------|
 E|----------------------------------------------------------------|



 Breakdown 2

 e|----------------------------------------------------------|
 B|----------------------------------------------------------|
 G|--6-6-6-7-7-7-6-6-6--7--7----6-6-6-7-7-7-6-6-6--4--4------|
 D|--6-6-6-7-7-7-6-6-6--7--7----6-6-6-7-7-7-6-6-6--4--4------|
 A|--4-4-4-5-5-5-4-4-4--5--5----4-4-4-5-5-5-4-4-4--2--2------|
 E|----------------------------------------------------------|

 e|----------------------------------------------------------|
 B|----------------------------------------------------------|
 G|--6-6-6-7-7-7-6-6-6--7--7----6--6--6--7--7--7--6----------|
 D|--6-6-6-7-7-7-6-6-6--7--7----6--6--6--7--7--7--6----------|
 A|--4-4-4-5-5-5-4-4-4--5--5----4--4--4--5--5--5--4----------|
 E|----------------------------------------------------------|
    P.M.P.M.P.M.P.M.P.M         P.M.P.M.P.M.P.M.

 
 e|------------------|   |------------------|
 B|------------------|   |------------------|
 G|--6-6-6-6-7-7-7-7-|   |--6-6-6-6-4-4-4-4-|
 D|--6-6-6-6-7-7-7-7-|x3 |--6-6-6-6-4-4-4-4-|
 A|--4-4-4-4-5-5-5-5-|   |--4-4-4-4-2-2-2-2-|
 E|------------------|   |------------------|


 1°Guitar
 e|-------------------------------------------------------------|
 B|-------------------------------------------------------------|
 G|-6-6-6-6-7-7-7-7-9-9-9-9-11-11-11-11-13-13-13-13-13-13-13-13-|
 D|-x-x-x-x-x-x-x-x-x-x-x-x-x--x--x--x--x--x--x--x--x--x--x--x--|
 A|-4-4-4-4-5-5-5-5-7-7-7-7-9--9--9--9--11-11-11-11-11-11-11-11-|
 E|-------------------------------------------------------------|

 e|----------|
 B|----------|
 G|-4--5--6--|
 D|-x--x--x--|
 A|-2--3--4--|
 E|----------|
    
 2°Guitar
 e|------------------|   |---------------------|
 B|------------------|   |---------------------|
 G|--6-6-6-6-7-7-7-7-|   |--6-6-6-6---4--5--6--|
 D|--6-6-6-6-7-7-7-7-|x3 |--6-6-6-6---4--5--6--|
 A|--4-4-4-4-5-5-5-5-|   |--4-4-4-4---2--3--4--|
 E|------------------|   |---------------------| 





Comments


Popular Punkreas tabs & chords
American Dream Bass Tabs
Anacronistico Bass Tabs
Falsi Preoccupati Bass Tabs
Mercato Del Niente Bass Tabs
Voglio Armarmi Bass Tabs
Vulcani Bass Tabs
Wto Bass Tabs
Family Gay Tabs
Occhi Puntati Tabs
Tyson Rock Tabs


Song lyrics



↑ Back to top | Tablatures and chords are parodies/interpretations of the original songs. You may use it for private study, scholarship, research or language learning purposes only
© 2014 AZChords.com Contact us | Privacy policy | DMCA | Add/correct tabs | Request tabs | Top 50 tabs