» » »

Punkreas, American Dream Bass tabs (ver.1)

Artists:  A B C D E F G H I J K L M N O P Q R S T U V W X Y Z # 

American Dream Bass tabs (ver.1)

Punkreas Tabs
 Rating:
4/5 (4 votes)
American Dream lessons Tabs too difficult? Try these video lessons and learn fast
1
                Me and some my friends, a few time ago, was looking for the tablature of
'American Dream' by Punkres, so now i submit this.
I hope there not to much mistakes.
Have fun ;-)

Tuning:
Standard
G|-
D|-
A|-
E|-

Intro
0:00 - 0:14
|-----------|
|-----------|
|--4--------| X 2
|-----------|

Dopo swaaaaaaaaaa di chitarra
0:14 - 0:26

|-------------------------------|
|---------444444----------------|
|--444444--------777777-666-222-|    X 2
|-------------------------------|

0:26 - 0:39

|----------------------------|
|----------------------------|
|--44-44-44-44--77-77--22-22-|	X 2
|----------------------------|

0:39 - 1:05

|-------------------------------|
|---------444444----------------|
|--444444--------777777-666-222-|    X 4
|-------------------------------|

1:05 - 1:19

|----------------------------|
|----------------------------|
|--44-44-44-44--77-77--22-22-|	X 2
|----------------------------|

1:19 - 1:33

|-------------------------------|
|---------444444----------------|
|--444444--------777777-666-222-|    X 2
|-------------------------------|

1:33 - 1:56

|---------------------------------------|
|---------------------------------------|
|--44-2-44-2-44-2-44-2-7777777-22222222-|  X 4
|---------------------------------------|

1:57 - 2:10

|--------------------------------------------------|
|--------------------------------------------------|
|--4-4-4-5-5-5-4-4-4-5--5--4-4-4-5-5-5-4-4-4-2--2--|
|--------------------------------------------------|


|----------------------------------------|
|----------------------------------------|
|--4-4-4-5-5-5-4-4-4-5--5--4-4-4-5-5-5-4-|
|----------------------------------------|

2:13 - 2:37

|-------------------------------|
|---------444444----------------|
|--444444--------777777-666-222-|    X 4
|-------------------------------|

2:51 - 3:03

|-------------------------------|
|---------444444----------------|
|--444444--------777777-666-222-|    X 2
|-------------------------------|

3:03 - 3:29

|---------------------------------------|
|---------------------------------------|
|--44-2-44-2-44-2-44-2-7777777-22222222-|  X 4
|---------------------------------------|

3:30

|--------------------------------------------------|
|--------------------------------------------------|
|--4-4-4-5-5-5-4-4-4-5--5--4-4-4-5-5-5-4-4-4-2--2--|
|--------------------------------------------------|


|----------------------------------------|
|----------------------------------------|
|--4-4-4-5-5-5-4-4-4-5--5--4-4-4-5-5-5-4-|
|----------------------------------------|

|--------------------------------------------------|
|--------------------------------------------------|
|--4-444-5-555-4-444-5-555-4-444-5-555-4-444-2-222-|
|--------------------------------------------------|

|------------------------------------------------|
|------------------------------------------------|
|--4-444-5-555-4-444-5-555-4-444-5-555-4-444-234-|
|------------------------------------------------|
            
Submit corrections

comments powered by Disqus
↑ Back to top | Punkreas Bass for American Dream. Lyrics for acoustic guitar and electric guitar. 1 Tablatures and chords are parodies/interpretations of the original songs. You may use it for private study, scholarship, research or language learning purposes only