» » »

Punchline, Why Is He Right? Tabs (ver.1)

Artists:  A B C D E F G H I J K L M N O P Q R S T U V W X Y Z # 

Why Is He Right? Tabs (ver.1)

Punchline Tabs
 Rating:
4/5 (4 votes)
Why Is He Right? lessons Tabs too difficult? Try these video lessons and learn fast
                ----------------------------------------------------------------------------
                        Punchline - 
                             Action(2004)
----------------------------------------------------------------------------

credit to gabe for tabbing

eric
ug: JesseLaceyIsGod

tuning: eBGDAE(standard)

x - mute
 / - slide down
 \ - slide up
 h - hammer on


[insert techno like intro here]

intro x's 2
e|------------------------------------------|
B|------------------------------------------|
G|--------------------------------5---------|
D|-3--3--3---3--5----3--3--3---3--5--5--3---|
A|-3--3--3---3--5----3--3--3---3--3--5--3---|
E|-1--1--1---1--3----1--1--1---1-----3--1---|


pre chorus
e|--------------------------------------------------|
B|--------------------------------------------------|
G|-------5-------5-------5--------5-----------------|
D|--------------------------------------------------|
A|--3-3-----3-3-----3-3------3-3--------------------|
E|--------------------------------------------------|
    x x     x x     x x      x x

pre chorus cond'
e|---------------------------------------------------|
B|---------------------------------------------------|
G|-------5--------5-------5-------5------------------|
D|-2-2-------2-2-----3-3-----3-3---------------------|
A|---------------------------------------------------|
E|---------------------------------------------------|
   x x       x x     x x     x x

pre chorus cond'
e|--------------------------------------------------|
B|--------------------------------------------------|
G|-------5-------5-------5--------5-----------------|
D|--------------------------------------------------|
A|--3-3-----3-3-----3-3------3-3--------------------|
E|--------------------------------------------------|
    x x     x x     x x      x x


e|---------------------------------------------------|
B|---------------------------------------------------|
G|---------------------------------------------------|
D|-3---5---------------------------------------------|
A|-3---5---------------------------------------------|
E|-1---3---------------------------------------------|


chorus
e|--------------------------------------------------|
B|--------------------------------------------------|
G|--5----------5------------------------------------|
D|--5--3--5----5--3--5----7--3--5----7--3--5--------|
A|--3--3--5----3--3--5----7--3--5----7--3--5--------|
E|-----1--3-------1--3----5--1--3----5--1--3--------|



repeat twice
e|---------------------------------------------------|
B|---------------------------------------------------|
G|--4/5-5-5-5--4/5-5-5-5---7--9----------------------|
D|--x/x-x-x-x--x/x-x-x-x---x--x----------------------|
A|--2/3-3-3-3--2/3-3-3-3---5--7----------------------|
E|---------------------------------------------------|


e|------------------------------------------------|
B|------------------------------------------------|
G|------------------------------------------------|
D|--3--3--3--3--3--3/5--5--5--5-------------------|
A|--3--3--3--3--3--3/5--5--5--5-------------------|
E|--1--1--1--1--1--1/3--3--3--3-------------------|


guitar 1 x's 2
e|---------------------------------------------------|
B|---------------------------------------------------|
G|--------5------------------------------------------|
D|--7--3--5--5---------------------------------------|
A|--7--3--3--5---------------------------------------|
E|--5--1-----3---------------------------------------|

guitar 2  solo
e|--------------------------------------------------------------|
B|--3h5-3-----------5----3--3--5/6--5--3h5--5----3h5--3-----3---|
G|----------5---7----------------------------------------5------|
D|--------------------------------------------------------------|
A|--------------------------------------------------------------|
E|--------------------------------------------------------------|

guitar 2 cond'
e|---------------3-----3-----------------------------|
B|--3/5---1---1-----1------1/5--5/3------------------|
G|---------------------------------------------------|
D|---------------------------------------------------|
A|---------------------------------------------------|
E|---------------------------------------------------|

intro x's 2
e|------------------------------------------|
B|------------------------------------------|
G|--------------------------------5---------|
D|-3--3--3---3--5----3--3--3---3--5--5--3---|
A|-3--3--3---3--5----3--3--3---3--3--5--3---|
E|-1--1--1---1--3----1--1--1---1-----3--1---|



pre chorus
e|--------------------------------------------------|
B|--------------------------------------------------|
G|-------5-------5-------5--------5-----------------|
D|--------------------------------------------------|
A|--3-3-----3-3-----3-3------3-3--------------------|
E|--------------------------------------------------|
    x x     x x     x x      x x

pre chorus cond'
e|---------------------------------------------------|
B|---------------------------------------------------|
G|-------5--------5-------5-------5------------------|
D|-2-2-------2-2-----3-3-----3-3---------------------|
A|---------------------------------------------------|
E|---------------------------------------------------|
   x x       x x     x x     x x

pre chorus cond'
e|--------------------------------------------------|
B|--------------------------------------------------|
G|-------5-------5-------5--------5-----------------|
D|--------------------------------------------------|
A|--3-3-----3-3-----3-3------3-3--------------------|
E|--------------------------------------------------|
    x x     x x     x x      x x


e|---------------------------------------------------|
B|---------------------------------------------------|
G|---------------------------------------------------|
D|-3---5---------------------------------------------|
A|-3---5---------------------------------------------|
E|-1---3---------------------------------------------|


chorus
e|---------------------------------------------------|
B|---------------------------------------------------|
G|---5----------5------------------------------------|
D|---5--3--5----5--3--5----7--3--5----7--3--5--------|
A|---3--3--5----3--3--5----7--3--5----7--3--5--------|
E|------1--3-------1--3----5--1--3----5--1--3--------|



e|---------------------|
B|---------------------|
G|---------------------|
D|-----7--3-x-x-x-5----|
A|-----7--3-x-x-x-5----|
E|-----5--1-x-x-x-3----|



e|---------------------------------------------------|
B|---------------------------------------------------|
G|--4/5-5-5-5--4/5-5-5-5---7--9----------------------|
D|--x/x-x-x-x--x/x-x-x-x---x--x----------------------|
A|--2/3-3-3-3--2/3-3-3-3---5--7----------------------|
E|---------------------------------------------------|


e|--------------------------------------------------|
B|--------------------------------------------------|
G|--------------------------------------------------|
D|---3---6---10-------------------------------------|
A|---3---6---10-------------------------------------|
E|---1---4---8--------------------------------------|


acoustic bridge
e|-------------0---------------------------|
B|---1-----1---1---------------------------|
G|---2-----2---0---------------------------|
D|---2-----3-------------------------------|
A|-----------------------------------------|
E|-----------------------------------------|



e|---------------------------------------------------|
B|---------------------------------------------------|
G|----------5----------------------------------------|
D|---7---5--5---5------------------------------------|
A|---7---5--3---5------------------------------------|
E|---5---3------3------------------------------------|


e|---------------------------------------------------|
B|---------------------------------------------------|
G|----------5-----------------5----------------------|
D|---7---3--5--5------7---3---5----------------------|
A|---7---3--3--5------7---3---3----------------------|
E|---5---1-----3------5---1--------------------------|
            
Submit corrections

comments powered by Disqus
↑ Back to top | Punchline Tabs for Why Is He Right?. Lyrics for acoustic guitar and electric guitar. Tablatures and chords are parodies/interpretations of the original songs. You may use it for private study, scholarship, research or language learning purposes only