>
 >
Wars Will Always Happen

Wars Will Always Happen Bass Tabs

Punchline - Wars Will Always Happen chords, tabs, tablatures, lyrics

Guitar lessons | Add/correct | Request | Top 50 tabs Artists:  A B C D E F G H I J K L M N O P Q R S T U V W X Y Z 0-9

Wars Will Always Happen Bass Tabs – Punchline

CD, Sheet music, Poster

Do you like Wars Will Always Happen? Share with your friends now
Bass Tabs

Tuning: standard


punchline is pumpkin pie. enjoy.


Intro
G|-------------------------------------------------|
D|-------------------------------------------------| 
A|-55555555---------------22222222-----------------|
E|---------------33333333---------------55555555---|

G|----------------------------------------------|
D|----------------------------------------------| 
A|----------------------------------------5555--|
E|-3333--2222--3333--2222--0000-----------------|

Pre-verse
G|-----------------------------------------------|
D|-----------------------------------------------| 
A|-22222222-22222222-22222222-2222---------------|
E|-----------------------------------------------|

Verse 1
G|-------------------------------------------------------------------------------------|
D|-------------------------------------------------------------------------------------|
A|---------------------------22222222-22222222-----------------------------------------|
E|-33333333-33333333----------------------------33333333-33333333--00000000-00000000---|

G|--------------------------------------------------------------------|
D|--------------------------------------------------------------------| 
A|-22222222-22222222--------------------------------------------------|
E|----------------------------00000000-00000000--55555555-55555555x---|

Chorus
G|-----------------------------------|
D|-----------------------------------| 
A|-5x-5------------------2x-2----4~--|
E|-------0-2-3x--3-3-0--------5~-----|

Post-chorus
G|-------------------------------------------------|
D|-------------------------------------------------| 
A|---------------------------------------5555--3~--|
E|-3333--2222--3333--2222--0000--------------------|

Pre-verse
G|------------------------------------------------------------------------------------------------| 
D|------------------------------------------------------------------------------------------------| 
A|------------------------------22222222--22222222------------------------------------------------|
E|-3-2-3x--3-2-3x--3333x-----------------------------3-2-3x--5555--6666--7-6--7-7-6--7-7~---------|

Verse 2
G|-------------------------------------------------------------------------------------------------------|
D|-------------------------------------------------------------------------------------------------------| 
A|---------------------------2x--2x--2x--2x--2x--2x--2x--2x----------------------------------------------|
E|-33333333-33333333----------------------------------------33333333--33333333--0000~--0000~-------------|

G|---------------------------------------------------------------------|
D|---------------------------------------------------------------------| 
A|-2222~--2222~--------------------------------------------------------|
E|---------------------00000000-00000000--55555555--55555555-----------|

Chorus

Post chorus
G|--------------------------------------------------------------------------------------|
D|--------------------------------------------------------------------------------------|
A|----------------------------------------5555--33x--33x--33x--33x--3333/12-12-12-12----|
E|-3333--2222--3333--2222--0000---------------------------------------------------------|

Intro 
Post-chorus

End
G|-------------------------------------------------|
D|-------------------------------------------------| 
A|-3~--2x--2x--2x--2x------------------------------|
E|--------------------------5x--5x--5x--5h7p5--0~--|


| /  slide up
| \  slide down
| h  hammer-on
| p  pull-off
| ~  vibrato
| +  harmonic
| x  Mute note
===============================================================================





Comments


Popular Punchline tabs & chords
Play Bass Tabs
A Sharp Is A Flat Tabs
Caller 10 Tabs
Don't Try This At Home Tabs
Fake The Snake And The Birthday Cake Tabs
Getaway Intro Tabs
Getting There Is Getting By 1 Tabs
Open Up Tabs
Time In A Picture Tabs
Yearlong Winter Ukulele


Song lyrics



↑ Back to top | Tablatures and chords are parodies/interpretations of the original songs. You may use it for private study, scholarship, research or language learning purposes only
© 2014 AZChords.com Contact us | Privacy policy | DMCA | Add/correct tabs | Request tabs | Top 50 tabs