» » »

Punchline, Time In A Picture Tabs (ver.1)

Artists:  A B C D E F G H I J K L M N O P Q R S T U V W X Y Z # 

Time In A Picture Tabs (ver.1)

Punchline Tabs
 Rating:
4/5 (4 votes)
Time In A Picture lessons Tabs too difficult? Try these video lessons and learn fast
                ----------------------------------------------------------------------------
                        Punchline -
                             Action(2004)
----------------------------------------------------------------------------

credit to gabe for tabbing

eric
ug: JesseLaceyIsGod

tuning: eBGDAE(standard)

whole intro is muted
e |--------------------------------------------------------------------------------|
b |--------------------------------------------------------------------------------|
g |--------------------------------------------------------------------------------|
d |--------10-------12--10-------------10------10h12p10--10------------------------|
a |----8------8--8-----------8--8----8------8--------------------------------------|
E |--------------------------------------------------------------------------------|

e |-----------------------------------------------------------------------------|
b |-----------------------------------------------------------------------------|
g |-----------------------------------------------------------------------------|
d |-------10-----12--10---------------------------------------------------------|
a |----8-------8----------------------------------------------------------------|
E |-8---------------------------------------------------------------------------|

e |----------------------------------------------------------------------------------|
b |----------------------------------------------------------------------------------|
g |----------------------------------------------------------------------------------|
d |----------10---12--10------10~~~--------------------------------------------------|
a |--------8----8----------------10~~~-----------------------------------------------|
E |-10---------------------------8~~~------------------------------------------------|
play the intro twice the end on the c power chord

e |------------------------------------------------------------------------------|
b |------------------------------------------------------------------------------|
g |------------------------------------3-3-3-3-----------------------------------|
d |--3-3-3-3-3----7-7-7-7-7----3-3-3-3-------------------------------------------|
a |--3-3-3-3-3----7-7-7-7-7----5-5-5-5-------------------------------------------|
E |--1-1-1-1-1----5-5-5-5-5------------------------------------------------------|

repeat intro 4 times during verse

e |---------------------------------------------------------------------------|
b |---------------------------------------------------------------------------|
g |-------------5~~~----------------------------------------------------------|
d |--3~~~----5~~~---5~~~-----7~~~---------------------------------------------|
a |--3~~~----3~~~---5~~~-----7~~~---------------------------------------------|
E |--1~~~-------------3~~~-----5~~~-------------------------------------------|
repeat 2 times

e |-----------------------------------------------------------------------------|
b |-----------------------------------------------------------------------------|
g |-4/5-5-5-5-5-----------------------------------------------------------------|
d |-x/x-x-x-x-x-----------------------------------------------------------------|
a |-2/3-3-3-3-3-----------------------------------------------------------------|
E |-----------------------------------------------------------------------------|
repeat 8 times i think, listen for better timing

e |-----------------------------------------------------------------------------|
b |-----------------------------------------------------------------------------|
g |-------5-5h7p5--------5-5h7p5-------5-5h7p5------------7------5h7p5----------|
d |--5-5--------------5-5---------------5-5---------------5---5-----------------|
a |-----------------------------------------------------------------------------|
E |-----------------------------------------------------------------------------|
listen for timing and muting

e |-----------------------------------------------------------------------------|
b |-----------------------------------------------------------------------------|
G|--------------7-7-7-7-7-----------------5~~~----------------------------------|
d |-7-7-7-7-7-7-7-7-7-7-3-3-3-3-3--5~~~-5~~~------------------------------------|
a |-7-7-7-7-7-5-5-5-5-5-3-3-3-3-3--3~~~-5~~~------------------------------------|
E |-5-5-5-5-5--------------1-1-1-1-1---------3~~~-------------------------------|

e |---------------------------------------------------------------------------|
b |---------------------------------------------------------------------------|
G |--------------5-5-5-5-5----------------------------------------------------|
d |--3-3-3-3-3-5-3-3-3-3--5-5-5-5-5---7-7-7-7-7-------------------------------|
a |--3-3-3-3-3-3-3-3-3-3--5-5-5-5-5---7-7-7-7-7-------------------------------|
E |--1-1-1-1-1--------------3-3-3-3-3---5-5-5-5-5-----------------------------|
repeat twice

e |-----------------------------------------------------------------------------|
b |-----------------------------------------------------------------------------|
g |-9/12~~~-9/5/12~~~-11/7~~~-7/9/5~~~------------------------------------------|
d |-x/x~~~--x-/x/-x-~~~-x-/x~~~-x/x/x~~~----------------------------------------|
a |-7/10~~~-7/7/10~~~-9-/5~~~-5/7/3~~~------------------------------------------|
E |-----------------------------------------------------------------------------|

e |-----------------------------------------------------------------------------|
b |-----------------------------------------------------------------------------|
g |-7/9/12~~~-12/14/12~~~-9/11/7~~~-7/9/5~~~------------------------------------|
d |-x/x/-x~~~--x-/-x/-x-~~~-x/x-/x~~~-x/x/x~~~----------------------------------|
a |-5/7/10~~~-10/12/10~~~-7/9-/5~~~-5/7/3~~~------------------------------------|
E |-----------------------------------------------------------------------------|

e |-----------------------------------------------------------------------------|
b |-----------------------------------------------------------------------------|
g |-5---------------------------------------------------------------------------|
d |-5---5---7-------------------------------------------------------------------|
a |-3---5---7-------------------------------------------------------------------|
e|------3---5-------------------------------------------------------------------|


e |-----------------------------------------------------------------------------|
b |-----------------------------------------------------------------------------|
g |------7/9-7------9/11-----------7/9-7--------11----------11-----11-----------|
d |--------------7-----------9-------------7-----9------9--9--------9-----------|
a |-----------------------------------------------------------------------------|
E |-----------------------------------------------------------------------------|
The B note(9) is musted the last 4 times

e |-----------------------------------------------------------------------------|
b |-----------------------------------------------------------------------------|
g |------7/9--------9/11------7/9--------7h9p7-7~~~-----------------------------|
d |------------7------------8----------7----------------------------------------|
a |-----------------------------------------------------------------------------|
E |-----------------------------------------------------------------------------|

e |---------------------------------------------------------------------------|
b |---------------------------------------------------------------------------|
G |---------------5-5-5-5-5---------------------------------------------------|
d |--3-3-3-3-3-5-3-3-3-3--5-5-5-5-5---7-7-7-7-7-------------------------------|
a |--3-3-3-3-3-3-3-3-3-3--5-5-5-5-5---7-7-7-7-7-------------------------------|
E |--1-1-1-1-1--------------3-3-3-3-3---5-5-5-5-5-----------------------------|

e |---------------------------------|
b |---------------------------------|
g |-----------5-5-5-----------------|
d |-3-3-3---5-5-5--5-5-5---7-7-7----|
a |-3-3-3---3-3-3--5-5-5---7-7-7----|
E |-1-1-1------------3-3-3---5-5-5--|

i don't have this part tabbed yet, i'll do it later :P

e |-----------------------------------------------------------------------------------|
b |-----------------------------------------------------------------------------------|
g |-----------------------------------------------------------------------------------|
d |----------12-12-12-----------------------------------------------------------------|
a |---8-8-----------------------------------------------------------------------------|
E |-----------------------------------------------------------------------------------|

repeat alot
            
Submit corrections

comments powered by Disqus
↑ Back to top | Punchline Tabs for Time In A Picture. Lyrics for acoustic guitar and electric guitar. Tablatures and chords are parodies/interpretations of the original songs. You may use it for private study, scholarship, research or language learning purposes only