» » »

Hit Tabs (ver.1)

Artists:  A B C D E F G H I J K L M N O P Q R S T U V W X Y Z # 

Hit Tabs (ver.1)

Punchline
Rating:
0/5 (0 votes)

Tabs too difficult? Try these video lessons and learn fast.
                ----------------------------------------------------------------------------
                           Punchline - The Hit
----------------------------------------------------------------------------

Eric:
 JesseLaceyIsGod

x - mute
 p - pull off
 h - hammer on
 ~ - ring out
 / - slide down
 \ - slide up

Listen for timing on this one.

Intro Riff
e |-----------------------------|
b |--5--7--5-7--5--7--5--7/8\7--|
g |-----------------------------|
d |-----------------------------|
a |-----------------------------|
E |-----------------------------|

verse x's 2
e |-------------------------------|
b |-------------------------------|
g |--7----------------------------|
d |--7--7--7/9--9--9\7--7/9--9\7--|
a |--5--7--7/9--9--9\7--7/9--9\7--|
E |-----5--5/7--7--7\5--5/7--7\5--|

verse The first part is muted twice. On the third time mute G and A chords.
e |-----------|--------|
b |-----------|--------|
g |-----------|--------|
d |--5--7--9--|--5--7--|
a |--5--7--9--|--5--7--|
E |--3--5--7--|--3--5--|

chorus x's 1
e |------------------------------------------------|
b |------------------------------------------------|
g |-----------7------------------------------------|
d |--9--5--7--7--7--5---------------9--5--7--5--7--|
a |--9--5--7--5--7--5---------------9--5--7--5--7--|
E |--7--3--5-----5--3--2-2-2-3-3-2--7--3--5--3--5--|


verse x's 2
e |-------------------------------|
b |-------------------------------|
g |--7----------------------------|
d |--7--7--7/9--9--9\7--7/9--9\7--|
a |--5--7--7/9--9--9\7--7/9--9\7--|
E |-----5--5/7--7--7\5--5/7--7\5--|

verse The first part is muted twice. On the third time mute G and A chords.
e |-----------|--------|
b |-----------|--------|
g |-----------|--------|
d |--5--7--9--|--5--7--|
a |--5--7--9--|--5--7--|
E |--3--5--7--|--3--5--|


chorus x's 1
e |------------------------------------------------|
b |------------------------------------------------|
g |-----------7------------------------------------|
d |--9--5--7--7--7--5---------------9--5--7--5--7--|
a |--9--5--7--5--7--5---------------9--5--7--5--7--|
E |--7--3--5-----5--3--2-2-2-3-3-2--7--3--5--3--5--|



Solo before the next chorus played once
e |--------------------------------|--------------------------|------------------------------------------|
b |--------------------------------|--------------------------|------------------------------------------|
g |--------------------------------|--------------------7-----|--------------------------------4--12--9--|
d |-----------0--------------2--0--|-----------0--------7--7--|-----------0--------------2--0--x--x---x--|
a |--2--0--2-----3--2--0--0--------|--2--0--2-----3--2--5--7--|--2--0--2-----3--2--0--0--------2--10--7--|
E |--------------------------------|-----------------------5--|------------------------------------------|



chorus x's 2
e |------------------------------------------------|
b |------------------------------------------------|
g |-----------7------------------------------------|
d |--9--5--7--7--7--5---------------9--5--7--5--7--|
a |--9--5--7--5--7--5---------------9--5--7--5--7--|
E |--7--3--5-----5--3--2-2-2-3-3-2--7--3--5--3--5--|



Outro Guitar 1
e |--------------------------------|--------------------------|
b |--------------------------------|--------------------------|
g |--------------------------------|--------------------7-----|
d |-----------0--------------2--0--|-----------0--------7--7--|
a |--2--0--2-----3--2--0--0--------|--2--0--2-----3--2--5--7--|
E |--------------------------------|-----------------------5--|


Outro Guitar 2
e |-----------------------------------------------------|
b |--10----------------------15-------------------10----|
g |--12--14--12--11--12--14-------15--14--12--11--12----|
d |-----------------------------------------------------|
a |-----------------------------------------------------|
E |-----------------------------------------------------|

Outro Guitar 2 contd'
e |-------------------------------------------------------|
b |--10---------------------------------------------------|
g |--12--14--12--11--12p11------11----------------11------|
d |-------------------------12------12----12--14------12--|
a |-------------------------------------------------------|
E |-------------------------------------------------------|
            
Tabs too difficult? Try these video lessons and learn fast.




comments powered by Disqus
↑ Back to top | Tablatures and chords are parodies/interpretations of the original songs. You may use it for private study, scholarship, research or language learning purposes only