» » »

Rewind Tabs (ver.1)

Artists:  A B C D E F G H I J K L M N O P Q R S T U V W X Y Z # 

Rewind Tabs (ver.1)

Punchline
Rating:
0/5 (0 votes)

Hard to play? Try these video lessons and learn fast.
                ----------------------------------------------------------------------------
                             Punchline - Rewind
                               The Rewind EP
----------------------------------------------------------------------------

originally tabbed at punchtabs.com



Eric:
 JesseLaceyIsGod


e|----------------------------- 
b|----------------------------- 
G|---3-------3h4p3------------- 
D|---4-------4----------------- 
A|---2-------2----------------- 
E|----------------------------- 

e|---------------------------------------------------------------------------|
B|---------------------------------------------------------------------------|
G|------3----------------------------------------------------------------------|
D|------4---------------------------------------------------------------------|
A|------2---------------------------------------------------------------------|
E|---------------------------------------------------------------------------|
strum a few times with distortion

e|----------------------------------- 
b|----------------------------------- 
G|-------3---------3-------------3----- 
D|-----4---4-----4---4-------4---4--- 
A|---2---------2-----------2--------- 
E|----------------------------------- 

e|--------------------------- 
b|--------------------------- 
G|-------3h4p3----3---------- 
D|-----4---------------------- 
A|---2------------------------ 
E|---------------------------- 
ater the fourth time doing this start struming the initro

e|---------------------------------------------------------------------------|
B|---------------------------------------------------------------------------|
G|-----3-3--3--3---3~~~--------------------------------------------------|
D|-----4--4--4--4--4~~~----------2----------------------------------------|
A|-----2--2--2--2--2~~~----------2----------------------------------------|
E|--------------------------------------0---------------------------------------|
"rewind!" 

e|---------------------------------------------------------------------------|
B|---------------------------------------------------------------------------|
G|------------------------------4----------------------------------------------|
D|------6------4-----2--------4--------------------------------------------------|
A|------6------4-----2--------2--------------------------------------------------|
E|------4-------2-----0--------------------------------------------------------|
the B(last) power chord is muted

e|---------------------------------------------------------------------------|
B|---------------------------------------------------------------------------|
G|---------------------------------------------------------------------------|
D|------6------4-----2----------------------------------------------------------|
A|------6------4-----2----------------------------------------------------------|
E|------4-------2-----0--------------------------------------------------------|
"so why can't you..."
e|---------------------------------------------------------------------------|
B|---------------------------------------------------------------------------|
G|-----4--6----------------------------4------------------------------------------|
D|-----x--x---6--4------2~~~------4-------------------------------------------------|
A|-----2--4---x--x------2~~~------2--------------------------------------------------|
E|-------------4---2------0~~~---------------------------------------------------|

e|---------------------------------------------------------------------------|
B|---------------------------------------------------------------------------|
G|---444--4~~----444-------4-3-----------------------------------------|
D|---444--4~~----444------------4---------------------------------------|
A|---222--2~~----222-----------------------------------------------------|
E|---------------------------------------------------------------------------|
listen for the mutng here

e|---------------|------------------------------------------------------------|
B|--------------|-------------------------------------------------------------|
G|---3--3h4--|-----4--4p3------------------------------------------------------------|
D|---x--x------|-----x--x---------------------------------------------------------|
A|---2--2------|-----2--2---------------------------------------------------------|
E|---------------|------------------------------------------------------------|
So i know this part is wrong, But hey i tried. Just listen
for the strumming pattern

e|---------------------------------------------------------------------------|
B|---------------------------------------------------------------------------|
G|-----3-3--3--3---3~~~--------------------------------------------------|
D|-----4--4--4--4--4~~~----------2----------------------------------------|
A|-----2--2--2--2--2~~~----------2----------------------------------------|
E|--------------------------------------0---------------------------------------|
"rewind!" 

e|---------------------------------------------------------------------------|
B|---------------------------------------------------------------------------|
G|------------------------------4----------------------------------------------|
D|------6------4-----2--------4--------------------------------------------------|
A|------6------4-----2--------2--------------------------------------------------|
E|------4-------2-----0--------------------------------------------------------|
the B(last) power chord is muted

e|---------------------------------------------------------------------------|
B|---------------------------------------------------------------------------|
G|---------------------------------------------------------------------------|
D|------6------4-----2----------------------------------------------------------|
A|------6------4-----2----------------------------------------------------------|
E|------4-------2-----0--------------------------------------------------------|
"so why can't you..."

e|---------------------------------------------------------------------------|
B|-------12--11--9--7--5--4--5--7-------------------------------------|
G|---------------------------------------------------------------------------|
D|---9------------------------------------------------------------------------|
A|---------------------------------------------------------------------------|
E|---------------------------------------------------------------------------|
repeat this a lot

e|---------------------------------------------------------------------------|
B|---------------------------------------------------------------------------|
G|---4--6---4-------4--4----------------------------------------------------------|
D|---4--6---4---4---4--4-----------------------------------------------------------|
A|---2--4---2---4---2--2-----------------------------------------------------------|
E|----------------2-----------------------------------------------------------|

e|---------------------------------------------------------------------------|
B|---------------------------------------------------------------------------|
G|------4---6--8/9--9999999----4~~~-----------------------------------------------------------|
D|------4---x--x/x--xxxxxxx----4~~~----------------------------------------------|
A|------2---4--6/7--7777777----2~~~------------------------------------------------|
E|--------------------------------------------------------------|
            
Hard to play? Try these video lessons and learn fast. | Correct




comments powered by Disqus
↑ Back to top | Tablatures and chords are parodies/interpretations of the original songs. You may use it for private study, scholarship, research or language learning purposes only