>
 >
Power Off

Power Off Guitar Tabs

Punchline - Power Off chords, tabs, tablatures, lyrics

Guitar lessons | Add/correct | Request | Top 50 tabs Artists:  A B C D E F G H I J K L M N O P Q R S T U V W X Y Z 0-9

Power Off Guitar Tabs – Punchline

CD, Sheet music, Poster

Do you like Power Off? Share with your friends now
Bass TabsTabs
----------------------------------------------------------------------------
                           Punchline - Power Off
                               The Rewind EP
----------------------------------------------------------------------------

originally tabbed at punchtabs.com



Eric:
 JesseLaceyIsGod




x - mute
 / - slide down
 \ - slide up
 h - hammer on
 ~ - ring out
 b - bend
 * - harmonic

 Listen for the strumming pattern.


Intro
e |------------------------------------|
b |---3~------------------3~-----------|
g |---4~---4~-------------4~-----------|
d |---4~---5~---4~---2~---4~-----------|
a |---2~---5~---4~---2~---2~-----------|
E |--------3~---2~---0~----------------|


Intro cont'd
e |----------------------------|
b |----------------------------|
g |----------------------4~----|
d |-----5---4---5---7----4~----|
a |-----5---4---5---7----2~----|
E |-----3---2---3---5----------|



e |-------------|--------------|
b |-------------|--------------|
g |-4-4-3/4-4---|---4/9--9-9-4-| whole thing repeated 4 times
d |-4-4-x/x-x---|---x/x--x-x-x-| end's on B listen for srumming.
a |-2-2-1/2-2---|---2/7--7-7-2-|
E |-------------|--------------|
  Repeat the first part 6 times and the 
last time end with the b octave to the e.




Pre-Verse   This is played with some reverb
e |---------------------------------------|
b |---/7--8-------7--8--7---/10-----------|
g |----------7----------------------------|
d |---------------------------------------|
a |---------------------------------------|
E |---------------------------------------|



verse
e |---------------------------|
b |---------------------------|
g |---------4--2------------7-|
d |---5--4--4--2---5--4--2--7-|
a |---5--4--2--0---5--4--2--5-|
E |---3--2---------3--2--0----|

pre chorus 
e |-------------------------------|
b |-------------------------------|
g |-----------4--2----------------|
d |----5---4--4--2---5------------|
a |----5---4--2--0---5------------|
E |----3---2---------3------------|


chorus
e |-----------------------------------|
b |-----------------------------------|
g |--4-----------4----------------4---|
d |--4--5--4--2--4--5--4--5--7----4---|
a |--2--5--4--2--2--5--4--5--7----2---|
E |-----3--2--0-----3--2--3--5--------|



1st guitar x's 2
e |----------------|
b |----------------|
g |------7---------|
d |---2--7---------|
a |---2--5---------|
E |---0------------|

Solo 2nd guitar   This is played with some reverb
e |------------------------------------------------------------------|
b |------------------------------------------------------------------|
g |------14--------19--18--14------12/14---14----------12--12--12/14-|
d |--12-------12---------------12--------------12--12----------------|
a |------------------------------------------------------------------|
E |------------------------------------------------------------------|

Solo contd'
e |---------------------------------------------------------------|
b |---------------------------------------------------b17--15-----|
g |------14-------19---18---14-------12/14--14--------------------|
d |--12------12------------------12--------------12---------------|
a |---------------------------------------------------------------|
E |---------------------------------------------------------------|


verse
e |---------------------------|
b |---------------------------|
g |---------4--2------------7-|
d |---5--4--4--2---5--4--2--7-|
a |---5--4--2--0---5--4--2--5-|
E |---3--2---------3--2--0----|

pre chorus 
e |-----------------------------|
b |-----------------------------|
g |----------4--2---------------|
d |----5--4--4--2--5------------|
a |----5--4--2--0--5------------|
E |----3--2--------3------------|


chorus
e |---------------------------------------|
b |---------------------------------------|
g |--4-----------4----------------4-------|
d |--4--5--4--2--4--5--4--5--7----4-------|
a |--2--5--4--2--2--5--4--5--7----2-------|
E |-----3--2--0-----3--2--3--5------------|


Bridge
e |-----------------------------|
b |-----------------------------|
g |---7-------------------------|
d |---7--9--7--9--7--5----------|
a |---5--9--7--9--7--5----------|
E |------7--5--7--5--3----------|


Bridge contd'
e |-----------------------------|
b |-----------------------------|
g |---7-------------------------|
d |---7--7--5--7--5--4----------|
a |---5--7--5--7--5--4----------|
E |------5--3--5--3--2----------|


Bridge contd' 
e |--------------------------------------------------------|
b |--------------------------------------------------------|
g |---------2h4--2----------2h4--2-----2---2h4--2----------|
d |------------------4--0-----------4---------------4--0---|
a |----2/5-------------------------------------------------|
E |--------------------------------------------------------|

contd'
e |---------------|
b |---------------|
g |---2/4\2-------|
d |----------2----|
a |---------------|
E |---------------| repeat 2 times




Repeat the first part 3 times. Then end 
it with the second part after the third time.
The whole thing is repeated twice
e |------------------------------------|--------------|
b |---------7----7-7---\7---/5----/3---|--5~~/7-------|
g |----7h9-----------------------------|--------------|
d |------------------------------------|--------------|
a |------------------------------------|--------------|
E |------------------------------------|--------------|
                 * *

contd'
e |----------------------------------|
b |----7~~-5\3~~~--------------------|
g |----------------------------------|
d |----------------------------------|
a |----------------------------------|
E |----------------------------------|




guitar 1
e |----------------------------------------|
b |----------------------------------------|
g |---------------------4-6-7--------------|
d |----5--9--4--7---5-7-4-6-7---5--9--4--7-|
a |----5--9--4--7---5-7-2-4-5---5--9--4--7-|
E |----3--7--2--5---3-5---------3--7--2--5-|

guitar 2
e |-----------------------------------------|
b |-----------------------------------------|
g |--12--6--7------12--9-11----12--7-11--9--|
d |---x--x--x-------x--x--x-----x--x--x--x--|
a |---9--4--5------10--7--9----10--5--9--7--|
E |-----------------------------------------|




e |-------------------------------------------------------------------------|
b |-------------------------------------------------------------------------|
g |---7-----6--7--------7-----6--7--------4--7--6------------4--7--6--------|
d |7-----7--------7--7-----7-----------7-----------7------7-----------7-----|
a |---------------------------------5------------------5--------------------|
E |-------------------------------------------------------------------------|

e |-------------------------------------------------------------------------|
b |-------------------------------------------------------------------------|
g |------6--7--6------------6--7--6------------6--7--6------------6--7--6---|
d |---7-----------7------7-----------7------7-----------7------7-----------7|
a |-------------------------------------------------------------------------|
E |7------------------7------------------5------------------5---------------|

e |-------------------------------------------------------------------------|
b |------2--3--2-----------2--3--2-------------2--3--2----------2--3--2-----|
g |---2-----------2-----2-----------2-------2-----------2----2-----------2--|
d |-------------------------------------------------------------------------|
a |-------------------------------------------------------------------------|
E |3-----------------3-------------------2-----------------2----------------|
This last part you repeat one last time 

e |---------------------------------------|
b |---------------------------------------|
g |---------4--------4~~------------------|
d |---4--5--4--5--7--4~~------------------|
a |---4--5--2--5--7--2~~------------------|
E |---2--3-----3--5-----------------------|
all chords are muted. then let the last chord ring out


It's kinda hard to hear but im
pretty sure these are being 
strummed a few times. 
Listen for strumming.
e |----------|
b |--3--3----|
g |--2--2----|
d |----------|
a |----------|
E |--3--2----|


Mute these 11 times
e |----------------|
b |----------------|
g |----------------|
d |---4--2---------|
a |---4--2---------|
E |---2--0---------|
      x  x 


end.
e |----------------------------------------------------------|
b |---------------------------------------7h8---7------------|
g |--------7-------6---7----------7-----------------7--------|
d |----7-------7----------7---7-------7----------------------|
a |----------------------------------------------------------|
E |----------------------------------------------------------|





Comments


Popular Punchline tabs & chords
Wars Will Always Happen Bass Tabs
For The Second Time Chords
Yearlong Winter Chords
Dont Try This At Home Intro Tabs
Getaway Intro Tabs
Getting There Is Getting By 2 Tabs
Heart Transplant Tabs
Open Up Tabs
For The Second Time Ukulele
Yearlong Winter Ukulele


Song lyrics



↑ Back to top | Tablatures and chords are parodies/interpretations of the original songs. You may use it for private study, scholarship, research or language learning purposes only
© 2014 AZChords.com Contact us | Privacy policy | DMCA | Add/correct tabs | Request tabs | Top 50 tabs