>
 >
Play

Play Guitar Tabs

Punchline - Play chords, tabs, tablatures, lyrics

Guitar lessons | Add/correct | Request | Top 50 tabs Artists:  A B C D E F G H I J K L M N O P Q R S T U V W X Y Z 0-9

Play Guitar Tabs – Punchline

CD, Sheet music, Poster

Do you like Play? Share with your friends now
Bass TabsTabs
----------------------------------------------------------------------------
                              Punchline - Play
                                The Rewind EP
----------------------------------------------------------------------------

Eric:
 JesseLaceyIsGod




x - mute
 p - pull off
 h - hammer on
 b - bend
 ~ - ring out
 * - harmonic

most of it is all here. Just listen to the song and play along with it.

intro 1st guitar 
this riff is palm muted 3 times then the 2nd guitar kicks in.
e|---------------------|
B|---------------------|
G|---------------------|
D|9-7-6-7-6------------|
A|----------9-7--------|
E|---------------------|

intro 2nd guitar x's 2
e|-------------------------------|
B|-------------------------------|
G|---2--6-----2--4---------------|
D|2--2--6--6--2--4---------------|
A|2--0--4--6--0--2---------------|
E|0--------4---------------------|

pre-verse x'2
e|--------------------------------------------------------12------12------|
B|-4h5-5-5--4h5-5-5--4h5-5-5--4h5-5-5-------2---------12------12------12--|
G|---------------------------------------------2--------------------------|
D|------------------------------------------------------------------------|
A|------------------------------------------------------------------------|
E|------------------------------------------------------------------------|
       x x      x x      x x      x x                  *   *   *   *   *

    
pre-verse contd'   
e|------------------------------------------------------------|
B|-4h5-5-5--4h5-5-5--4h5-5-5--4h5-5-5---5/7\5--------7-----4--|
G|---------------------------------------------4--6-----6-----|
D|------------------------------------------------------------|
A|------------------------------------------------------------|
E|------------------------------------------------------------|
       x x      x x      x x      x x

verse
e|--------------|-------------------|
B|--------------|-------------------|
G|----6--4--2---|------4--2--4------|
D|-2--6--4--2---|---2--4--2--4------|
A|-2--4--2--0---|---2--2--0--2------|
E|-0------------|---0---------------|

2nd guitar
e|----------------------------|
B|------4--7--5---------------|
G|---4------------------------|
D|----------------------------|
A|----------------------------|
E|----------------------------|
     x  x  
repeat this 8 or 9 times during the 2nd part of the verse

e|---------------------------------------------------|
B|---------------------------------------------------|
G|---6----2~~--4~~---6--4---2~~--4~~-----------------|
D|---6----2~~--4~~---6--4---2~~--4~~-----------2~~---|
A|---4----0~~--2~~---4--2---0~~--2~~-----------2~~---|
E|------------------------------------3b--2b---0~~---|

e|---------------------------|
B|---------------------------|
G|--4---2-----4--2--4--------|
D|--4---2--2--4--2--4--------|
A|--2---0--2--2--0--2--------|
E|---------0-----------------|

e|-------------------------|
B|-------------------------|
G|---2--4--6---------------|
D|---2--4--6---------------|
A|---0--2--4---------------|
E|-------------------------|
  "i wanna be" repeat twice

e|-----------------------------------------|
B|-4h5-5-5--4h5-5-5--4h5-5-5--4h5-5-5------|
G|-----------------------------------------|
D|-----------------------------------------|
A|-----------------------------------------|
E|-----------------------------------------|
       x x      x x      x x      x x


e|------------------------|
B|------------------------|
G|--6--2-----4------------|
D|--6--2--2--4------------|
A|--4--0--2--2------------|
E|--------0---------------|
repeat this twice. all chords are muted

2nd guitar
e|---------------------------|
B|------4--7--5--------------|
G|---4-----------------------|
D|---------------------------|
A|---------------------------|
E|---------------------------|
     x  x  



"Take a walk out side"
e|---------------------------------------------|
B|5-------5--5-------5---5-------5--5-------5--|
G|---4-4--------4-4---------2-2--------2-2-----|
D|---------------------------------------------|
A|---------------------------------------------|
E|---------------------------------------------|

contd'
e|--------------------------------------|
B|--5-----5--5-----5--5p4-----4--4-----4|
G|----4-4------4-4--------4-4------4-4--|
D|--------------------------------------|
A|--------------------------------------|
E|--------------------------------------|
 
e|-------------------------|---------------------------------|
B|-------------------------|---------------------------------|
G|--x4-----16--14--13--9---|--8--9--11--16-------------------|
D|--x4------x---x---x--x---|--x--x--x----x-------------------|
A|--x2-----14--12--11--7---|--6--7--9---14-------------------|
E|-------------------------|---------------------------------|
play the first 4 octaves twice then the next 4, I'm not sure about that part

first guitar
e|---------------------|
B|---------------------|
G|---6-----2-------4---|
D|---6-----2---2---4---|
A|---4-----0---2---2---|
E|-------------0-------|

second guitar
e|--------------------|
B|----5-5--7p5-5------|
G|----4-4--4---4------|
D|--------------------|
A|--------------------|
E|--------------------|
    Listen for strumming here

e|------------------|
B|------------------|
G|--6--4--2---------|
D|--6--4--2---------|
A|--4--2--0---------|
E|------------------|
play this twice 


e|-----------------------------|
B|-----------------------------|
G|---6--2--4---6--4---2--4-----|
D|---6--2--4---6--4---2--4-----|
A|---4--0--2---4--2---0--2-----|
E|-----------------------------|
play this twice 

e|-------------------|
B|-------------------|
G|--2---4---6--------|
D|--2---4---6--------|
A|--0---2---4--------|
E|-------------------|
mute all chords


e|------------------|
B|------------------|
G|----6------2------|
D|----6--6---2------|
A|----4--6---0------|
E|-------4----------|


e|--------------------|
B|--------------------|
G|------4--2----------|
D|--2---4--2----------|
A|--2---2--0----------|
E|--0-----------------|
play this twice 

intro 1st guitar        
e|--------------------|
B|--------------------|
G|--------------------|
D|9-7-6-7-6-----------|
A|----------9-7-------|
E|--------------------|

intro 2nd guitar
e|--------------------|
B|--------------------|
G|---2--6-----2--4----|
D|2--2--6--6--2--4----|
A|2--0--4--6--0--2----|
E|0--------4----------|


play this 2 times
e|--------------------|
B|--------------------|
G|--13---11--9--------|
D|---x---x---x--------|
A|--11---9---7--------|
E|--------------------|





Comments


Popular Punchline tabs & chords
Greatest Party Ever Intro Bass Tabs
Rewind Bass Tabs
A Sharp Is A Flat Tabs
Battlescars Tabs
Getting There Is Getting By Tabs
Getting There Is Getting By (Intro) Tabs
Getting There Is Getting By 1 Tabs
Heart Transplant Intro Tabs
Just Getting Started Tabs
Yearlong Winter Ukulele


Song lyrics



↑ Back to top | Tablatures and chords are parodies/interpretations of the original songs. You may use it for private study, scholarship, research or language learning purposes only
© 2014 AZChords.com Contact us | Privacy policy | DMCA | Add/correct tabs | Request tabs | Top 50 tabs