>
 >
Open Up

Open Up Guitar Tabs

Punchline - Open Up chords, tabs, tablatures, lyrics

Guitar lessons | Add/correct | Request | Top 50 tabs Artists:  A B C D E F G H I J K L M N O P Q R S T U V W X Y Z 0-9

Open Up Guitar Tabs – Punchline

CD, Sheet music, Poster

Do you like Open Up? Share with your friends now
Tabs
----------------------------------------------------------------------------
                            Punchline - Open Up
                                Action(2004)
----------------------------------------------------------------------------
Credit to Mike for tabbing
JesseLaceyIsGod

tuning: standard(eBGDAE)




INTRO

Guitar 1

e|-----------------------------------------|
b|---5-----5-----5---5h7p5~---5-----5------|
g|-----4~----4~----4------------4~----4----|
d|-----------------------------------------|
a|-----------------------------------------|
E|-----------------------------------------| 

Guitar 2

e|----------------------------------------------------|
B|----------------------------------------------------|
G|2-----4-------6---------2-------4-------------------|
D|2-x8--4-x8----6-x16-----2-x8----4-x8---2------------|
A|0-----2-------4---------0-------2------2-x16--------|
E|---------------------------------------0------------|

The "In this room..." Part

e|-------------------4-2-4----4-2-4----4-2-4----4-2-4------------------|
B|---------------------------------------------------------------------|
G|6-------2--------------------------------------------6--------2------|
D|6--x12--2--x12--22-------22-------22-------22--------6--x12---2--x12-|
A|4-------0-------22-------22-------22-------22--------4--------0------|
E|----------------00-------00-------00-------00------------------------|

"Open Up..."

e|-------------------------------------------------------------------------------|
B|-------------------------------------------------------------------------------|
G|66-6-8-9\\2-------244-4-----------66-666-666-6-8-9\\2------244-4-----------2~~~|
D|66-6-8-9\\2--x4---244-4-----------66-666-666-6-8-9\\2--x4--244-4-----------2~~~|
A|44-4-6-7\\0-------022-2-2h0-------44-444-444-4-6-7\\0------022-2-2h0-------0~~~|
E|-----------------------------4p2--------------------------------------4p2------|

Clean Chorus
Same as the distorted chorus, but the E chord is played off the D string. 
Just pick the chord slowly.

BREAKDOWN

Guitar 1

e|------------4----------------|
B|--------4h5---5--x8----------|
G|-----------------------------|
D|-----------------------------|
A|-----------------------------|
E|-----------------------------|

Guitar 2

e|--------------------7-12~~~------------|
B|4-5-4---------5~~~---------------------|
G|------4~~~--4--------------------------|
D|---------------------------------------|
A|---------------------------------------|
E|---------------------------------------|

"Yea yea, you never made a difference"
Play this twice, but on the second time, it stops at the slide to the B power chord.

e|------------------------------------|
B|------------------------------------|
G|xx-66-666-11-13---------------------|
D|xx-66-444-----------77-7/9----------|
A|xx-44-444-9--11-----77-7/9----------|
E|--------------------55-5/7-5h7h5----|

Distorted Chorus
Play Twice, 2nd time don't play the F#,G#,A, just slide down to the A.

e|-------------------------------------|
B|-------------------------------------|
G|--------6--------4-------------------|
D|2-------6--x16---4--x16--4x-6x-7~----|
A|2--x16--4--------2-------4x-6x-7~----|
E|0------------------------2x-4x-5~----|

"Will you wake, up, to, me?"
5th time through, ignore the mutes

Guitar 1

e|---------------------------|
B|---------------------------|
G|66xx-------------x44xx-----|
D|66xx-x66xx-x77xx-x44xx-----|
A|44xx-x66xx-x77xx-x22xx-----|
E|-----x44xx-x55xx-----------|

Guitar 2
Comes in 3rd time through above, play this during the mutes.

e|--------------|
B|--------------|
G|-99-9---------|
D|-xx-x---------|
A|-77-7---------|
E|--------------|

After this, it plays the "Open up" part again, but ends with a C# power chord





Comments


Popular Punchline tabs & chords
Flashlight Bass Tabs
Greatest Party Ever Intro Bass Tabs
Play Bass Tabs
A Beautiful Green Tabs
Battlescars Intro Tabs
Caller 10 Tabs
Dont Try This At Home Intro Tabs
Fake The Snake And The Birthday Cake Tabs
Getting There Is Getting By 2 Tabs
Play Tabs


Song lyrics



↑ Back to top | Tablatures and chords are parodies/interpretations of the original songs. You may use it for private study, scholarship, research or language learning purposes only
© 2014 AZChords.com Contact us | Privacy policy | DMCA | Add/correct tabs | Request tabs | Top 50 tabs