» » »

Just Getting Started Tabs (ver.1)

Artists:  A B C D E F G H I J K L M N O P Q R S T U V W X Y Z # 

Just Getting Started Tabs (ver.1)

Punchline
Rating:
0/5 (0 votes)

Hard to play? Try these video lessons and learn fast.
                ----------------------------------------------------------------------------
                       Punchline - Just Getting Started
                                Action(2004)
----------------------------------------------------------------------------
Credit to Richey for tabbing
JesseLaceyIsGod

tuning: standard(eBGDAE)



Intro Guitar 1 - listen for strokes - 
play twice, let ring at end
e|----------------------------------------------|
B|----------------------------------------------|
G|-----4--6-------4--2--------------------------|
D|--2--4--6----2--4--2--------------------------|
A|--2--2--4----2--2--0--------------------------|
E|--0----------0--------------------------------|


Intro guitar 2
e|----------------------------------------------|
B|----------------------------------------------|
G|-------4-------4------4--------4--4-4-4-------|
D|--1h2-----1h2-----1h2-----1h2-----2-2-2-------|
A|----------------------------------------------|
E|----------------------------------------------|

e|----------------------------------------------|
B|----------------------------------------------|
G|------4-------4------4------4------4------4---|
D|--4h6----4h6-----4h6----4h6---4h6-----4h6-----|
A|----------------------------------------------|
E|----------------------------------------------|

e|----------------------------------------------|
B|----------------------------------------------|
G|-------4-------4------4--------4--4-4-4-------|
D|--1h2-----1h2-----1h2-----1h2-----2-2-2-------|
A|----------------------------------------------|
E|----------------------------------------------|

Intro guitar 2 contd'                        then this 2nd time through
e|----first time end with this---------------|------|
B|-------------------------------------------|------|
G|------4------4------4-------4------4-----4-|--4~--|
D|--4p2----4p2----4p2----4p2----4p2----4p2---|--2~--|
A|-------------------------------------------|--0~--|
E|-------------------------------------------|------|


Verse - Guitar 1 only - palmmmute all bass notes
e|--------------------------------------------------|
B|--------------------------------------------------|
G|------------4-----------4-----------4----------4--|
D|----------2-----------2-----------2----------2----|
A|--0-0-0-0-----0-0-0-0-----4-4-4-4----4-4-4-4------|
E|--------------------------------------------------|

e|--------------------------------------------------|
B|--------------------------------------------------|
G|------------2-----------2-----------4----------4--|
D|----------2-----------2-----------2----------2----|
A|--------------------------------------------------|
E|--2-2-2-2-----2-2-2-2-----4-4-4-4-----4-4-4-4-----|


Pre chorus - Guitar 2 only - listen for strokes
e|-------------------------------------------------------------|
B|-------------------------------------------------------------|
G|-2-------2-2---------2---------2-2-------------1h2---1h2-----|
D|-2-------2-2---------2---------2-2---------------------------|
A|---------------------0-0-0-0-0-----0-0-0-0-0-0-----0-0-------|
E|-2-2-2-2-----2-2-2-2-----------------------------------------|
     pm...     .......   .......     ...........     ...

                           both guitars now
e|------------------------|------------------------|
B|------------------------|------------------------|
G|--2---------2-2---------|--2-----4---------------|
D|--2---------2-2---------|--2-----4---------------|
A|------------------------|--0-----2---------------|
E|--2-2-2-2-2----2-2-2-2--|------------------------|
      pm.....    .......


Chorus guitar 1
e|----------------------------------------------|
B|----------------------------------------------|
G|------2---------2----6-----2--4---------------|
D|-2----2----2----2----6--4--2--4---------------|
A|-2----0----2----0----4--4--0--2---------------|
E|-0---------0------------2---------------------|

Chorus Guitar 2 - just repeat over and over
e|--7---7---5---5---4---4---2---0---------------|
B|----5---5---5---5---5---5---5----5------------|
G|----------------------------------------------|
D|----------------------------------------------|
A|----------------------------------------------|
E|----------------------------------------------|

chorus Guitar 2 - part 2
    C#              F#
e|--4---4---4---4---5---5---5---5---------------|
B|----5---5---5---5---5---5---5---5-------------|
G|----------------------------------------------|
D|----------------------------------------------|
A|----------------------------------------------|
E|----------------------------------------------|

    A                                       B
e|--12-12-12-12-11-11-11-11-9-9-9-9-4-4h5-5-5-5h7-5-5h7-5-5h7----|
B|---------------------------------------------------------------|
G|---------------------------------------------------------------|
D|---------------------------------------------------------------|
A|---------------------------------------------------------------|
E|---------------------------------------------------------------|

Verse 2- Guitar 2
e|----------------------------------------------|
B|----------------------------------------------|
G|----------------3 times then------------------|
D|-7p6---2----1/2--------------7p6--2-----------|
A|-------------------------------------4\2------|
E|----------------------------------------------|

Bridge Part 1 - Guitar 1 and 2
listen for strokes- play twice
e|--------------|
B|--------------|
G|--4--4--2--4--|
D|--2--2--2--2--|
A|--0--4--x--x--|
E|--------2--4--|

Bridge Part 1 - Guitar 3 - joins in second time through
repeats over and over til bridge part 2
e|--------------|
B|-----12-----12|
G|-8h9----8h9---|
D|--------------|
A|--------------|
E|--------------|


Bridge part 2 - Both guitars - listen for strokes
play four times
e|--------------|
B|--------------|
G|--4--4--4--4--|
D|--2--2--2--4--|
A|--4--x--0--2--|
E|-----4--------|

2nd chorus just repeats and changes a little, easy to figure out
end of 2nd chorus fill
e|----------------------------------------------|
B|----------------------------------------------|
G|------4--6-----1^-1h2^------------------------|
D|----2-------4---------------------------------|
A|--4-------------------------------------------|
E|----------------------------------------------|

after the chorus just repeat the intro

Outro - Guitar 1
e|--------------|
B|--------------|
G|--4--4--2--4--|
D|--2--2--2--2--|
A|--0--4--x--x--|
E|--------2--4--|

OUtro - Guitar 2
e|----------------------------------------------|
B|----------------------------------------------|
G|----------------3 times then------------------|
D|-7p6---2----1/2--------------7p6--2-----------|
A|-------------------------------------4\2------|
E|----------------------------------------------|

Outro - Guitar 3 - joins in 2nd time through
e|--19-17-16-12--19-17-16-12--19-17-16-12--12-14-11----|
B|--------------------------------------------------12-|
G|-----------------------------------------------------|
D|-----------------------------------------------------|
A|-----------------------------------------------------|
E|-----------------------------------------------------|

Outro - Guitar 4 - joins in 3rd time through and keeps repeating
e|--------------|
B|-----12-----12|
G|-8h9----8h9---|
D|--------------|
A|--------------|
E|--------------|
            
Hard to play? Try these video lessons and learn fast. | Correct




comments powered by Disqus
↑ Back to top | Tablatures and chords are parodies/interpretations of the original songs. You may use it for private study, scholarship, research or language learning purposes only