» » »

Punchline, Here Goes Nothing Tabs (ver.1)

Artists:  A B C D E F G H I J K L M N O P Q R S T U V W X Y Z # 

Here Goes Nothing Tabs (ver.1)

Punchline Tabs
 Rating:
3.4/5 (5 votes)
Here Goes Nothing lessons Tabs too difficult? Try these video lessons and learn fast
                ------------------ Here Goes Nothing: Punchline ----------------------------
this song is easy to play. everytime i play this song  get into it so much cause of the

*=palm mute
standard tuning
 
Intro
e|---------------------------------------------------------|
B|---------------------------------------------------------|
G|5~7~9~-7~9~11~12-12-12-11-7~-5-9-12-5-7-9-7-9-11-12~--12~|
D|---------------------------------------------------------|
A|3~5~7~-5~7~9~-10-10-10-9--5~-3-7-10-3-5-7-5-7-9--10~--10~|
E|---------------------------------------------------------|

Verse
e|-------------------|
B|-------------------|
G|--------7----4----5|
D|---5---------------|
A|-----5-5--2-2--3-3-|
E|3-3----------------|
  * *  * *  * *  * *

Pre-chorus (find exact strumming off the song)
e|--------|
B|--------|
G|--2~4~5~|
D|5~2~4~5~|
A|5~0~2~3~|
E|3~------|

Chorus      (find exact strumming off the song)
e|--------|
B|--------|
G|--------|
D|--4---5-|
A|5-2-2-3-|
E|3---0---|

riff
e|-----------------------------------|
B|-----------------------------------|
G|-----------------------------------|
D|------2-2-4-4-4-7-7-9-9-9-4-4-7-7-7|
A|5-5-5-0-0-2-2-2-5-5-7-7-7-2-2-5-5-5|
E|3-3-3------------------------------|

Repeat Verse
Repeat chorus

Bridge part 1.
e|----------------------------------------|
B|----------------------------------------|
G|----------------------------------------|
D|5~-5-4------5~-5-4------7-5-5~-5-4------|
A|------555555------555555----------555555|
E|----------------------------------------|

Bridge 2.
e|------------|
B|------------|
G|----4-----4-|
D|---5-5---5-5|
A|5-5---5-5---|
E|------------|

Repeat Bridge 1.
Rpeat Bridge 2.
then...
e|------------|
B|------------|
G|----4-----4-|
D|---5-5---5-5|
A|5-5---5-5---|
E|------------|
  ************
Repeat chorus without distotion once
then play wih distortion 
then play riff and end it
            
Submit corrections

comments powered by Disqus
↑ Back to top | Punchline Tabs for Here Goes Nothing. Lyrics for acoustic guitar and electric guitar. Tablatures and chords are parodies/interpretations of the original songs. You may use it for private study, scholarship, research or language learning purposes only