» » »

Punchline, Green Light Tabs (ver.1)

Artists:  A B C D E F G H I J K L M N O P Q R S T U V W X Y Z # 

Green Light Tabs (ver.1)

Punchline Tabs
Rating:
5/5 (1 vote)
Green Light lessons Tabs too difficult? Try these video lessons and learn fast
                Intro Guitar 1
e |------------|-----------|
b |------------|-----------|
g |------------|-----5-----|
d |------------|--3--5--5--|
a |------------|--3--3--5--|
E |--3-5-3--0--|--1-----3--|


Intro Guitar 2
e |---------------------------------------|-----------------------|
b |--5------------------------------------|-----------------------|
g |--7\9--7--4--7--5--4------/7--5--4-----|-----5----4h5p4--4-----|
d |----------------------5-------------5--|--5-----5-----------5--|
a |---------------------------------------|-----------------------|
E |---------------------------------------|-----------------------|



Guitar 1 x's 4
e |-----------|
g |-----------|
b |-----5-----|
d |--3--5--5--|
a |--3--3--5--|
E |--1-----3--|


Guitar 2
e |------------------|---------------------------------------|-----------------------|
b |------5*------5*--|--5------------------------------------|-----------------------|
g |--5*------5*------|--7\9--7--4--7--5--4------/7--5--4-----|-----5----4h5p4--4-----|
d |------------------|----------------------5-------------5--|--5-----5-----------5--|
a |------------------|---------------------------------------|-----------------------|
E |------------------|---------------------------------------|-----------------------|


"stare into this moment"
Guitar 1
e |-----------|
g |-----------|
b |-----5-----|
d |--7--5--3--|
a |--7--3--3--|
E |--5-----1--|

Guitar 2
e |--8-----8-----10-----10-----|
g |-----8-----8------8------8--|
b |----------------------------|
d |----------------------------|
a |----------------------------|
E |----------------------------|


Chorus x's 2
e |--------------|
b |--------------|
g |--5-----------|
d |--5--7--5--3--|
a |--3--7--5--3--|
E |-----5--3--1--|





Intro Guitar 1
e |------------|-----------|
b |------------|-----------|
g |------------|-----5-----|
d |------------|--3--5--5--|
a |------------|--3--3--5--|
E |--3-5-3--0--|--1-----3--|


Intro Guitar 2
e |---------------------------------------|-----------------------|
b |--5------------------------------------|-----------------------|
g |--7\9--7--4--7--5--4------/7--5--4-----|-----5----4h5p4--4-----|
d |----------------------5-------------5--|--5-----5-----------5--|
a |---------------------------------------|-----------------------|
E |---------------------------------------|-----------------------|





Guitar 1 x's 4
e |-----------|
g |-----------|
b |-----5-----|
d |--3--5--5--|
a |--3--3--5--|
E |--1-----3--|


Guitar 2
e |------------------|---------------------------------------|-----------------------|
b |------5*------5*--|--5------------------------------------|-----------------------|
g |--5*------5*------|--7\9--7--4--7--5--4------/7--5--4-----|-----5----4h5p4--4-----|
d |------------------|----------------------5-------------5--|--5-----5-----------5--|
a |------------------|---------------------------------------|-----------------------|
E |------------------|---------------------------------------|-----------------------|



Muted x's 2
e |------------------------------------------|
b |--10-10-10-10-10--9-9-9-9-9-9--7-7-7-7-7--|
g |--9--9--9--9--9---9-9-9-9-9-9--9-9-9-9-9--|
d |------------------------------------------|
a |------------------------------------------|
E |------------------------------------------|





Chorus x's 2
e |--------------|
b |--------------|
g |--5-----------|
d |--5--7--5--3--|
a |--3--7--5--3--|
E |-----5--3--1--|


first part x's 2
e |---------------------------|-------------------|
g |---------------------------|-------------------|
b |---------------------------|-------------------|
d |--5-5-5-5-5-5--3--xxxxxxx--|--x-x-x-x--3-3--5--|
a |--5-5-5-5-5-5--3--xxxxxxx--|--x-x-x-x--3-3--5--|
E |--3-3-3-3-3-3--1--xxxxxxx--|--x-x-x-x--1-1--3--|



Guitar 1 x's4
e |-----------|
g |-----------|
b |-----5-----|
d |--7--5--3--|
a |--7--3--3--|
E |--5-----1--|


Guitar 2 x's4
e |--8-----8-----10-----10-----7-----7-----7-----7----------|
b |-----8-----8------8------8-----8-----8-----8-----8-------|
g |---------------------------------------------------------|
d |---------------------------------------------------------|
a |---------------------------------------------------------|
E |---------------------------------------------------------|




e |--------------|
b |--------------|
g |-----5--7-----|
d |--7--5--7--3--|
a |--7--3--5--3--|
E |--5--------1--|


x's 2   It's easier if you play it with an open C chord
e |---------------------------------1--0-----0~~--|
b |------1------1-----1----1-----1--------1--1~~--|
g |------0------0-----0----0-----0----------------|
d |---2------3------------------------------------|
a |---0------2------------------------------------|
E |----------------3-----1----3-------------------|



"stare into this moment"
e |-----------------------------------------------|
b |--1~~--1~~-------------------------------------|
g |--0~~--0~~-------------------------------------|
d |--2~~--2~~----3-3-3-3-3-3-3-3-3-3-3-3-3-3-3-3--|
a |-------3~~----3-3-3-3-3-3-3-3-3-3-3-3-3-3-3-3--|
E |--------------1-1-1-1-1-1-1-1-1-1-1-1-1-1-1-1--|


Chorus/Outro first part x's 2
e |--------------|-----------|
b |--------------|-----------|
g |--5-----------|-----5-----|
d |--5--7--5--3--|--7--5--3--|
a |--3--7--5--3--|--7--3--3--|
E |-----5--3--1--|--5-----1--|

e |----------------------------------------------------------|
b |----------------------------------------------------------|
g |--9--10--12--9--10--12-----7--10--9--7--9----5--7--9--10--|
d |--x--x---x---x--x---x------x--x---x--x--x----x--x--x--x---|
a |--7--8---10--7--8---10-----5--8---7--5--7----3--5--7--8---|
E |----------------------------------------------------------|
            

comments powered by Disqus
↑ Back to top | Punchline Tabs for Green Light. Lyrics for acoustic guitar and electric guitar. Tablatures and chords are parodies/interpretations of the original songs. You may use it for private study, scholarship, research or language learning purposes only