» » »

Punchline, Greatest Party Ever Bass tabs (ver.1)

Artists:  A B C D E F G H I J K L M N O P Q R S T U V W X Y Z # 

Greatest Party Ever Bass tabs (ver.1)

Punchline Tabs
 Rating:
4/5 (4 votes)
Greatest Party Ever lessons Tabs too difficult? Try these video lessons and learn fast
                (Intro)
Standard Tuning

Intro/Verse 1 x8 (0:01-0:24)
G------------------||
D------------------||
A--0---5-----5-----|| [Leave out the 3 open E's on last measure]
E---------3-----000||

Part at (0:46-0:58) x4
G-----------------||
D-----------------||
A--0---5-----5----||
E---------3----000||

Verse 2 x4 (0:59-1:10)
G----------------------||
D----------------------||
A--000--5555-------5555|| [End on single D on last measure]
E-------------333------||

Part at (1:33-1:46)
G----------------------|-----------------------|----------------------||
D----------------------|-----------------------|----------------------||
A--0000--5555------5555|--0000--5555------5----|--0000--5555-----5555-||
E-------------3333-----|-------------3333---000|-------------3333-----||
----------------------------------------------------------------------||
----------------------------------------------------------------------||
--0000-5555------5----------------------------------------------------||
------------3333------------------------------------------------------||

Bridge *No bass from 1:46-1:55* (1:55-1:58)
G------------------||
D------------------||
A---------------4-0||
E--000000000000----||

Ending (2:20-2:28)
G-------------|--------------|||
D-------------|--------------|||
A--0-5---5----|-0-5---5-----5|||
E------3---000|-----3---000--|||

|= end of measure  ||= end of part |||= end of song
Sorry that I'm missing the chorus, but I am working on the whole song. If you have any 
            
Submit corrections

comments powered by Disqus
↑ Back to top | Punchline Bass for Greatest Party Ever. Lyrics for acoustic guitar and electric guitar. Tablatures and chords are parodies/interpretations of the original songs. You may use it for private study, scholarship, research or language learning purposes only