» » »

Punchline, Coldest Of Calendars Tabs (ver.1)

Artists:  A B C D E F G H I J K L M N O P Q R S T U V W X Y Z # 

Coldest Of Calendars Tabs (ver.1)

Punchline Tabs
Rating:
0/5 (0 votes)
Coldest Of Calendars lessons Tabs too difficult? Try these video lessons and learn fast
                ----------------------------------------------------------------------------
                   Punchline - Coldest Of Calendars
                             Action(2004)
----------------------------------------------------------------------------

credit to Gabe for tabbing

eric
ug: JesseLaceyIsGod

tuning: eBGDAE(standard)


e |---------------------------------------------------------------------------------|
b |---------------------------------------------------------------------------------|
g |------9-8------------------------------------------------------------------------|
d |------------8h9p8----------------------------------------------------------------|
a |---------------------------------------------------------------------------------|
E |---------------------------------------------------------------------------------|

guitar 1
e |----------------------------------------------------------------------------------|
b |----------------------------------------------------------------------------------|
g |-------4--------4-------4--------4--------4--------4-------4-------4--------------|
d |---6------6--6---6--6----6--6----6--6----6--6----6--6---6--6----6-----------------|
a |----------------------------------------------------------------------------------|
E |----------------------------------------------------------------------------------|

guitar 2
e |-----------------------------------------------------------------------------|
b |---0----------2------4---------0-------2--------2/4\2------0---2---0---------|
g |-----------------------------------------------------------------------------|
d |-----------------------------------------------------------------------------|
a |-----------------------------------------------------------------------------|
E |-----------------------------------------------------------------------------|

verse
guitar 1
e |----------------------------------------------------------------------------------------------|
b |----------------------------------------------------------------------------------------------|
g |-------4--------4-------4--------4--------4--------4-------4-------4-------9-8-----------9-8--|
d |---6------6--6---6--6----6--6----6--6----6--6----6--6---6--6----6-----------9-------------9---|
a |----------------------------------------------------------------------------------------------|
E |----------------------------------------------------------------------------------------------|


chorus
e |--------------------------------------------------------------------------------------|
b |--------------------------------------------------------------------------------------|
g |------------------------4----6--------------------------------------------------------|
d |---2----6---4----2---4----6----4--6---4-----------------------------------------------|
a |---2----6---4----2---2----4----4--6---4-----------------------------------------------|
E |---0----4---2----0--------------2--4---2----------------------------------------------|

e |---------------------------------------------------------------------|
b |---------------------------------------------------------------------|
g |---------------------------------------------------------------------|
d |---2-2---2-2--------6-6---6-6---6-6----2-2---2-2-----6-6---6-6---6\--|
a |---2-2---2-2--------6-6---6-6---6-4----2-2---2-2-----6-6---6-6---6\--|
E |---0-0---0-0--------4-4---4-4---4-4----0-0---0-0-----4-4---4-4---4\--|

guitar 1
e |----------------------------------------------------------------------------------|
b |----------------------------------------------------------------------------------|
g |-------4--------4-------4--------4--------4--------4-------4-------4--------------|
d |---6------6--6---6--6----6--6----6--6----6--6----6--6---6--6----6-----------------|
a |----------------------------------------------------------------------------------|
E |----------------------------------------------------------------------------------|

guitar 2
e |-----------------------------------------------------------------------------|
b |-----------------------------------------------------------------------------|
g |-----------------------------------------------------------------------------|
d |---/6----/8------/16-16h18-16---------16-------------------------------------|
a |---------------------------------------18----------16---14---16--------------|
E |-----------------------------------------------------------------------------|

verse
e |----------------------------------------------------------------------------------------------|
b |----------------------------------------------------------------------------------------------|
g |-------4--------4-------4--------4--------4--------4-------4-------4-------9-8-----------9-8--|
d |---6------6--6---6--6----6--6----6--6----6--6----6--6---6--6----6-----------9-------------9---|
a |----------------------------------------------------------------------------------------------|
E |----------------------------------------------------------------------------------------------|

chorus
e |------------------------------------------------|
b |------------------------------------------------|
g |------------------------4----6------------------|
d |---2----6---4----2---4----6----4--6---4-----2---|
a |---2----6---4----2---2----4----4--6---4-----2---|
E |---0----4---2----0--------------2--4---2-----0--|

e |----------------------------------------------------------------------------------|
b |----------------------------------------------------------------------------------|
g |------4--6------------------------------------------------------------------------|
d |------4--6--4--6--4---------------------------------------------------------------|
a |------2--4--4--6--4---------------------------------------------------------------|
E |-------------2--4--2--------------------------------------------------------------|

guitar 1
e |---------------------------------------------------------------------|
b |---------------------------------------------------------------------|
g |---------------------------------------------------------------------|
d |---2-2---2-2--------6-6---6-6---6-6----2-2---2-2-----6-6---6-6---6\--|
a |---2-2---2-2--------6-6---6-6---6-4----2-2---2-2-----6-6---6-6---6\--|
E |---0-0---0-0--------4-4---4-4---4-4----0-0---0-0-----4-4---4-4---4\--|

guitar 2
e |------------------------------------|
b |------------------------------------|
g |---/13~~--13----13----8~~--8/9/4----|
d |---/x--~~--x------x-----x~~--x/x/x--|
a |---/11~~--11----11----6~~--6/7/2----|
E |------------------------------------|

e |--------------------------------------------------------------------------------|
b |--------------------------------------------------------------------------------|
g |---------------4----------------------------------------------------------------|
d |---2--4--6---4------------------------------------------------------------------|
a |---2--4--6---2------------------------------------------------------------------|
E |---0--2--4----------------------------------------------------------------------|
all of these chords are muted play this 8 times

e |----------------------------------------------------------------------------------|
b |----------------------------------------------------------------------------------|
g |-------4--------4-------4--------4--------4--------4-------4-------4--------------|
d |---6------6--6---6--6----6--6----6--6----6--6----6--6---6--6----6-----------------|
a |----------------------------------------------------------------------------------|
E |----------------------------------------------------------------------------------|
            
Submit corrections

comments powered by Disqus
↑ Back to top | Punchline Tabs for Coldest Of Calendars. Lyrics for acoustic guitar and electric guitar. Tablatures and chords are parodies/interpretations of the original songs. You may use it for private study, scholarship, research or language learning purposes only