» » »

Caller 1 Tabs (ver.1)

Artists:  A B C D E F G H I J K L M N O P Q R S T U V W X Y Z # 

Caller 1 Tabs (ver.1)

Punchline
Rating:
5/5 (1 vote)

Hard to play? Try these video lessons and learn fast.
                "(0)
x - mute
 p - pull off
 h - hammer on
 ~ - ring out
 / - slide down
 \ - slide up
Listen for timing on this one.

Intro x's 4
e |----------------------|
b |----------------------|
g |--12--12--16--17--14--|
d |--12--12--16--17--14--|
a |--10--10--14--15--12--|
E |----------------------|


Verse Guitar 1 x's 4
e |-----------|
b |-----------|
g |-----------|
d |--3-3-3-5--|
a |--3-3-3-5--|
E |--1-1-1-3--|



Verse Guitar 2 Listen for the muting on this part.
e |-----------------------------------------------|
b |-----------------------------------------------|
g |----5---------------4h5------7-------5--4h5/7--|
d |--5----5--5---5--5--------5----5--5------------|
a |-----------------------------------------------|
E |-----------------------------------------------|


Verse Guitar 2 Contd'
e |------------------------------------------|
b |------------------------------------------|
g |--------5p4--7p4--5/7--------5--4h5p4-----|
d |--5--5-----------------5--5------------5--|
a |------------------------------------------|
E |------------------------------------------|


Verse Guitar 1 Contd' 
this part is muted 4 times
e |-----------------------|
b |-----------------------|
g |-----------------------|
d |--3-3-3-5-5-5-5-5-5-5--|
a |--3-3-3-5-5-5-5-5-5-5--|
E |--1-1-1-3-3-3-3-3-3-3--|


Verse Guitar 2 Contd'
e |------------------|
b |------------------|
g |--/7~~~--5--4-----|
d |---------------5--|
a |------------------|
E |------------------|



Pre-Chorus x's 4
e |--------------------------|
b |--------------------------|
g |--------------------------|
d |--2-2--5-5--7-7-7--3-3-3--|
a |--2-2--5-5--7-7-7--3-3-3--|
E |--0-0--3-3--5-5-5--1-1-1--|



Chorus Guitar 1 x's 2
e |---------------------|
b |---------------------|
g |--5-----7------------|
d |--5--7--7--x------3--|
a |--3--7--5--x--0~--3--|
E |-----5-----x--0~--1--|


Chorus Guitar 2 x's 2
e |-----------------------------|
b |-----------------------------|
g |--5-----7--9--10--12/14--12--|
d |--5--7--x--x--x---x-/x---x---|
a |--3--7--5--7--8---10/12--10--|
E |-----5-----------------------|





Verse Guitar 1 x's 4
Listen for muting on the G chord
e |-----------|
b |-----------|
g |-----------|
d |--3-3-3-5--|
a |--3-3-3-5--|
E |--1-1-1-3--|


Verse Guitar 2
Listen for timing on this one! I tried my best on this part. 
I'd say it's pretty close.
e |-------------------------------------------------------------------|
b |-------------------------------------------------------------------|
g |-------4-x-4---------4h5----------/4--5--7------4-----4--5--7/9\7--|
d |--/5---5-x-5--x--x------------5--------------5-----5---------------|
a |-------------------------------------------------------------------|
E |-------------------------------------------------------------------|


Pre-Chorus x's 3
Play the 2nd part at the end.
It leads up to the chorus.
e |--------------------------|-----|
b |--------------------------|-----|
g |--------------------------|-----|
d |--2-2--5-5--7-7-7--3-3-3--|--5--|
a |--2-2--5-5--7-7-7--3-3-3--|--5--|
E |--0-0--3-3--5-5-5--1-1-1--|--3--|




Chorus Guitar 1 x's 2
e |---------------------|
b |---------------------|
g |--5-----7------------|
d |--5--7--7--x------3--|
a |--3--7--5--x--0~--3--|
E |-----5-----x--0~--1--|


Chorus Guitar 2 x's 2
e |-----------------------------|
b |-----------------------------|
g |--5-----7--9--10--12/14--12--|
d |--5--7--x--x--x---x-/x---x---|
a |--3--7--5--7--8---10/12--10--|
E |-----5-----------------------|


Bridge Guitar 1
e |-----------------------------------------------|
b |-----------------------------------------------|
g |-----------------------------------------------|
d |--------------5-----------------------5--------|
a |-----7-----7-----7---5-------7-----7-----7--5--|
E |--5-----5-----------------5-----5--------------|



Bridge Guitar 1 Contd'
e |--------------------------------------------|
b |--------------------------------------------|
g |--------------------------------------------|
d |--------------5--------------------5--------|
a |-----5-----5-----5--5-----5-----5-----5--5--|
E |--3-----3--------------3-----3--------------|



Bridge Guitar 2
listening for the timing on this part.
e |--15---20--19--17--15--|
b |-----------------------|
g |-----------------------|
d |-----------------------|
a |-----------------------|
E |-----------------------|



After the 1st guitar part plays twice
a 3rd distorted guitar comes in muted.


Bridge Guitar 3
e |--------|
b |--------|
g |--------|
d |--7--5--|
a |--7--5--|
E |--5--3--|


The song ends with the chorus played 4 times. Enjoy!
"            
Hard to play? Try these video lessons and learn fast. | Correct




comments powered by Disqus
↑ Back to top | Tablatures and chords are parodies/interpretations of the original songs. You may use it for private study, scholarship, research or language learning purposes only