» » »

Battlescars Tabs (ver.1)

Artists:  A B C D E F G H I J K L M N O P Q R S T U V W X Y Z # 

Battlescars Tabs (ver.1)

Punchline
Rating:
5/5 (2 votes)

Hard to play? Try these video lessons and learn fast.
                (Intro)
Standard tuning EADGBe

e------------------------------------------------------|
B-------0-------0-------0-----0----0-------------------|
G------------------------------------------------------|
D----2--------2-------4-----------4--------------------|    X3
A---4-4------0-0-----2-2-----2---2---------------------|
E---------------------------0--------------------------|

e---------------------------------------0~---0~--------|
B------0-----0-----0-----0----0-----0---0~---0~--------|
G------------------------------------------------------|
D----2-----4-----2----------2-----4--------------------|
A---0-0---2-2---4-4----2---0-0---2-2-------------------|
E---------------------4-4------------------------------|
            
Hard to play? Try these video lessons and learn fast. | Correct




comments powered by Disqus
↑ Back to top | Tablatures and chords are parodies/interpretations of the original songs. You may use it for private study, scholarship, research or language learning purposes only