» » »

Punchline, A Sharp Is A Flat Tabs (ver.1)

Artists:  A B C D E F G H I J K L M N O P Q R S T U V W X Y Z # 

A Sharp Is A Flat Tabs (ver.1)

Punchline Tabs
 Rating:
4/5 (4 votes)
A Sharp Is A Flat lessons Tabs too difficult? Try these video lessons and learn fast
                ----------------------------------------------------------------------------
                     Punchline - A Sharp is a Flat
                             Action(2004)
----------------------------------------------------------------------------

credit to gabe for tabbing

eric
ug: JesseLaceyIsGod

tuning: eBGDAE(standard)

 * = Harmonic
 / = slide down
 \ = slide up
 h = hammer on
 p = pull-off
 ~ = ring out
 x = mute 

ok, listen to the song and play along cuz i didn't tab the timing.

e|-------------------------------------|
B|-------------------------------------|
G|--4/-6-*-*-*-*-*---------------------|
D|--4/-6-*-*-*-*-*---------------------|
A|--2/-4-*-*-*-*-*---------------------|
E|-------------------------------------|

guitar 1
e|--12-----12-----12-------------------|
B|------9------9------9----------------|
G|-------------------------------------|
D|-------------------------------------|
A|-------------------------------------|
E|-------------------------------------|
this riff is played a lot over and over and over etc.

guitar 2
e|-------------------------------------|
B|-------------------------------------|
G|---6---2-----------------------------|
D|---6---2-----------------------------|
A|---4---0-----------------------------|
E|-------------------------------------|
repeat twice

e|-------------------------------------|
B|-------------------------------------|
G|--4--6--9-------4--6--6/9---4~~------|
D|--4--6--9-------4--6--x/x---x~~------|
A|--2--4--7-------2--4--4/7---2~-------|
E|-------------------------------------|
play 4 times

e|-------|-----------------------------|
B|-------|-----------------------------|
G|-2--4--|--4/6-2----------------------|
D|-2--4--|--x/x-2----------------------|
A|-0--2--|--2/4-0----------------------|
E|-------|-----------------------------|
repeat the second part 4 times

e|-------------------0~~------0~~---------------------------|
B|-------------------0~~------0~~---------------------------|
G|--------------------------------------------4/6-4-6-------|
D|--2--4--6----2-2------6--6-----4--6--7------4/6-2-6-------|
A|--2--4--6----2-2------6--6-----4--6--7------2/4-2-4-------|
E|--0--2--4----0-0------4--4-----2--4--5--------------------|
               x x      x  x
e|----------------------------------------|
B|----------------------------------------|
G|--4--6--9-------4--6--6/9---4~~---------|
D|--4--6--9-------4--6--x/x---x~~---------|
A|--2--4--7-------2--4--4/7---2~----------|
E|----------------------------------------|
repeat 4 times

guitar 1
e|--12-----12-----12-------------------|
B|------9------9------9----------------|
G|-------------------------------------|
D|-------------------------------------|
A|-------------------------------------|
E|-------------------------------------|
this riff is played a lot over and over and over etc.

guitar 2
e|-------------------------|
B|-------------------------|
G|--6----------------------|
D|--6----------------------|
A|--4----------------------|
E|-------------------------|

e|---------------------------------------------------------------------------|
B|---------------------------------------------------------------------------|
G|---2--4-----6-----2--4--6----2---4-----6---2x--2x--2x---4x--4x---4x--4x----|
D|---2--4--6--6-----2--4--6----2---4--6--6---2x--2x--2x---4x--4x---4x--4x----|
A|---0--2--6--4-----0--2--4----0---2--6--4---0x--0x--0x---2x--2x---2x--2x----|
E|---------4--------------------------4--------------------------------------|

e|-----------------------------------------------|
B|-----------------------------------------------|
G|--6/13-13--13\11/13--13------------------------|
D|--x/x--x---x-\x-/x---x-------------------------|
A|--4/11-11--11\9-/11--11------------------------|
E|-----------------------------------------------|

e|----------------0---0----|-------------------------------------------------|
B|-4h6p4-4-4-4-4--2---0----|---0h2p0-0-0-0-0---Alternate-way-to play---------|
G|----------------2---4----|-------------------that-first-riff---------------|
D|----------------2---4----|-------------------------------------------------|
A|----------------0---2----|-------------------------------------------------|
E|-------------------------|-------------------------------------------------|
  Just repeat the A and B a few times here. This is the
  "Never f**kn' Scared" part

e|------------|--------------------------------------|
B|------------|--------------------------------------|
G|--4--4/6\4--|-2---4--------------------------------|
D|--x--x/x\x--|-2---4--------------------------------|
A|--2--2/4\2--|-0---2--------------------------------|
E|------------|--------------------------------------|
repeat the second part 4 times

guitar 1
e|-----------------------------------------|--------------------------|
B|--9>--7--9>---7------/5~~---5--7--9--7---|----5~~--5--7--5----------|
G|-----------------------------------------|------------------4-------|
D|-----------------------------------------|--------------------------|
A|-----------------------------------------|--------------------------|
E|-----------------------------------------|--------------------------|
the first part is played twice, and the second part is when all the strings are 
playing in the back ground. It's played 4 times.

guitar 2
e|---------------------------------|
B|---------------------------------|
G|--2--4---------------------------|
D|--2--4---------------------------|
A|--0--2---------------------------|
E|---------------------------------|
play twice

e|-------------------------------|
B|-------------------------------|
G|---2--4-----6------------------|
D|---2--4--6--6------------------|
A|---0--2--6--4------------------|
E|---------4---------------------|
play twice clean

e|-------------------------------|
B|-------------------------------|
G|---2--4-----6-----2---4--------|
D|---2--4--6--6-----2---4--------|
A|---0--2--6--4-----0---2--------|
E|---------4---------------------|

guitar 1
e|--12-----12-----12-------------------|
B|------9------9------9----------------|
G|-------------------------------------|
D|-------------------------------------|
A|-------------------------------------|
E|-------------------------------------|
this riff is played a lot over and over and over etc.

guitar 2
e|----------|---------------------------|
B|----------|---------------------------|
G|---6---2--|---9-----------------------|
D|---6---2--|---x-----------------------|
A|---4---0--|---7-----------------------|
E|----------|---------------------------|
repeat twice then ends on an E octave
            
Submit corrections

comments powered by Disqus
↑ Back to top | Punchline Tabs for A Sharp Is A Flat. Lyrics for acoustic guitar and electric guitar. Tablatures and chords are parodies/interpretations of the original songs. You may use it for private study, scholarship, research or language learning purposes only