» » »

Pulp, Razzmatazz Bass tabs (ver.1)

Artists:  A B C D E F G H I J K L M N O P Q R S T U V W X Y Z # 

Razzmatazz Bass tabs (ver.1)

Pulp Tabs
 Rating:
4/5 (4 votes)
Razzmatazz lessons Tabs too difficult? Try these video lessons and learn fast
                

Tuning: G D A E

intro:
G|----------------------------------------------------------|
D|----------------------------------------------------------|
A|-5-5--5-5-5--5--------------------------------------------|
E|---------------3-3--3-3-3--3-0-0--0-0-0--0-5-5--5-5-0-5-0-|

Verse 1:
G|----------------------------------------------------------|\
D|----------------------------------------------------------|| x 4
A|-5-5--5-5-5--5--------------------------------------------||
E|---------------3-3--3-3-3--3-0-0--0-0-0--0-5-5--5-5-0-5-0-|/

Pre-chorus:
G|-----------------------------------------------------------------|\
D|-----------------------------------------------------------------||x2
A|-5-5-5-5-5-5-5-5-------------------------------------------------||
E|-----------------3-3-3-3-3-3-3-3-0-0-0-0-0-0-0-0-5-5-5-5-5-0-5-0-|/

Chorus 1:
G|-----------------------------------------------------------------|\
D|-----------------------------------------------------------------||x2
A|-5-5-5-5-5-5-5-5-------------------------------------------------||
E|-----------------3-3-3-3-3-3-3-3-0-0-0-0-0-0-0-0-5-5-5-5-5-0-5-0-|/

G|-----------------------------------------------------------------|
D|-----------------------------------------------------------------|
A|-5-5-5-5-5-5-5-5-------------------------------------------------|
E|-----------------3-3-3-3-3-3-3-3-0-0-0-0-0-0-0-0-0-0-0-0-0-0-0-0-|

Break 1:
G|-----------------------------------------------------------------|
D|-----------------------------------------------------------------|
A|----------------5------------------------------------------------|
E|-5------------------------------3--------------0---------------5-|

Verse 2:
G|----------------------------------------------------------|\
D|----------------------------------------------------------|| x 4
A|-5-5--5-5-5--5--------------------------------------------||
E|---------------3-3--3-3-3--3-0-0--0-0-0--0-5-5--5-5-0-5-0-|/

Pre-chorus:
G|-----------------------------------------------------------------|\
D|-----------------------------------------------------------------||x2
A|-5-5-5-5-5-5-5-5-------------------------------------------------||
E|-----------------3-3-3-3-3-3-3-3-0-0-0-0-0-0-0-0-5-5-5-5-5-0-5-0-|/

Chorus 2:
G|-----------------------------------------------------------------|\
D|-----------------------------------------------------------------||x2
A|-5-5-5-5-5-5-5-5-------------------------------------------------||
E|-----------------3-3-3-3-3-3-3-3-0-0-0-0-0-0-0-0-5-5-5-5-5-0-5-0-|/

G|-----------------------------------------------------------------|
D|-----------------------------------------------------------------|
A|-5-5-5-5-5-5-5-5-------------------------------------------------|
E|-----------------3-3-3-3-3-3-3-3-0-0-0-0-0-0-0-0-0-0-0-0-0-0-0-0-|

Break 2:
G|--------------------------------------------------------------|\
D|--------------------------------------------------------------||x2
A|---------------------------3-3----------------------------3-3-||
E|-5-5--5-5-5-0-3-5-5--5-5-5------5-5--5-5-5-0-3-5-5--5-5-5-----|/

G|----------------------------------------------------------|
D|----------------------------------------------------------|
A|------------------------------2-3-3--3-3-3---2-3-3--3-3-3-|
E|-5-5--5-5-5-0-3-5-5--5-5-5--5--------------5--------------|
-
G|------------------------------------------------------------------|
D|------------------------------------------------------------------|
A|---2-3-3--3-3-3---2-3-3--3-3-3--3-2---------------------------3-3-|
E|-5--------------5-------------------5-5--5-5-5-0-3-5-5--5-5-5-----|

G|--------------------------------|
D|--------------------------------|
A|--------------------------------|
E|-5-5--5-5-5-0-3-5-5-5-5-5-5-5-5-|

Song Ending:
G|-----------------------------------------------------------------|\
D|-----------------------------------------------------------------||x5
A|-5-5-5-5-5-5-5-5-------------------------------------------------||
E|-----------------3-3-3-3-3-3-3-3-0-0-0-0-0-0-0-0-5-5-5-5-5-0-5-0-|/

G|-----------------------------------------------------------------|
D|-----------------------------------------------------------------|
A|-5-5-5-5-5-5-5-5-------------------------------------------------|
E|-----------------3-3-3-3-3-3-3-3-0-0-0-0-0-0-0-0-0-0-0-0-0-0-0-0-|

G|----|
D|----|
A|----|
E|-5--|



| /  slide up
| \  slide down
| h  hammer-on
| p  pull-off
| ~  vibrato
| +  harmonic
| x  Mute note
            
Submit corrections

comments powered by Disqus
↑ Back to top | Pulp Bass for Razzmatazz. Lyrics for acoustic guitar and electric guitar. Tablatures and chords are parodies/interpretations of the original songs. You may use it for private study, scholarship, research or language learning purposes only