» » »

Pulp, Mis - Shapes Bass tabs (ver.1)

Artists:  A B C D E F G H I J K L M N O P Q R S T U V W X Y Z # 

Mis - Shapes Bass tabs (ver.1)

Pulp Tabs
Rating:
0/5 (0 votes)
Mis - Shapes lessons Tabs too difficult? Try these video lessons and learn fast
                
--------------------------------!!!Warning!!!--------------------------------------------
--------------------------------!!!Warning!!!--------------------------------------------


Verse 1
G |--------------------------------|--------------------------------|
D |--------------------------------|--------------------------------|
A |--------------------------------|--------------------------------|
E |-5~~~---------------------------|--------------------------------|

G |--------------------------------|--------------------------------|
D |--------------------------------|--------------------------------|
A |-7~~~---------------------------|---------5-------7-------8------|
E |--------------------------------|--------------------------------|

G |--------------------------------|--------------------------------|
D |--------------------------------|--------------------------------|
A |-9.------9.------9.------9.-----|-9.------9.------9.------7------|
E |--------------------------------|--------------------------------|

G |--------------------------------|--------------------------------|
D |--------------------------------|--------------------------------|
A |-5.------5.------5.------5.-----|-5.------5.------5.------5.-----|
E |--------------------------------|--------------------------------|

G |--------------------------------|--------------------------------|
D |-7---7---7---7---7---7---7---7--|--------------------------------|
A |--------------------------------|-5---5---5---5---5---5---5---5--|
E |--------------------------------|--------------------------------|


Verse 2
G |--------------------------------|--------------------------------|
D |--------------------------------|--------------------------------|
A |--------------------------------|--------------------------------|
E |-5.------5.------5.------5.-----|-5.------5.------5.------5.-----|

G |--------------------------------|--------------------------------|
D |--------------------------------|--------------------------------|
A |-7.------7.------7.------7.-----|-7.------5-------7-------8------|
E |--------------------------------|--------------------------------|

G |--------------------------------|--------------------------------|
D |--------------------------------|--------------------------------|
A |-9.------9.------9.------9.-----|-9.------9.------9.------7------|
E |--------------------------------|--------------------------------|

G |--------------------------------|--------------------------------|
D |--------------------------------|--------------------------------|
A |-5.------5.------5.------5.-----|-5.------5.------5.------5.-----|
E |--------------------------------|--------------------------------|

G |--------------------------------|--------------------------------|
D |-7---7---7---7---7---7---7---7--|--------------------------------|
A |--------------------------------|-5---5---5---5---5---5---5---5--|
E |--------------------------------|--------------------------------|


Alternate Verse Ending 
G |--------------------------------|
D |--------------------------------|
A |-5.------5.------5.------5.-----|
E |--------------------------------|


Chorus
G |--------------------------------|--------------------------------|
D |--------------------------------|--------------------------------|
A |-----------------------------3--|-----------------------------3--|
E |-3---3---3---3---3---3---3------|-3---3---3---3---3---3---3------|

G |--------------------------------|--------------------------------|
D |--------------------------------|--------------------------------|
A |-----------------------------3--|-------------------------5---4--|
E |-3---3---3---3---3---3---3------|-3---3---3---3---3---3----------|

G |--------------------------------|--------------------------------|
D |--------------------------------|-----------------------------3--|
A |-3---3---3---3---3---3---3------|-3---3---3---3---3---3---3------|
E |-----------------------------3--|--------------------------------|

G |--------------------------------|--------------------------------|
D |--------------------------------|--------------------------------|
A |-3---3---3---3---3---3---3------|-3---3---3---3---3---3---5---6--|
E |-----------------------------3--|--------------------------------|

G |--------------------------------|--------------------------------|
D |--------------------------------|--------------------------------|
A |-7---7---7---7---7---7---7------|-7---7---7---7---7---7---7------|
E |-----------------------------7--|-----------------------------7--|x4


Chorus Ending 1
G |--------------------------------|--------------------------------|
D |--------------------------------|--------------------------------|
A |-7---7---7---7---7---7---7---7--|-7---7---7---7---7---7---7---7--|
E |--------------------------------|--------------------------------|

G |--------------------------------|--------------------------------|
D |--------------------------------|--------------------------------|
A |-7~~~---------------------------|--------------------------------|
E |--------------------------------|--------------------------------|


Chorus Ending 2
G |--------------------------------|--------------------------------|
D |--------------------------------|--------------------------------|
A |-7---7---7---7---7---7---7---7--|-7---7---7---7---7---7---7---7--|
E |--------------------------------|--------------------------------|

G |--------------------------------|--------------------------------|
D |-6.------6.------6.------6.-----|-6.------6.------6.------6.-----|
A |--------------------------------|--------------------------------|
E |--------------------------------|--------------------------------|


Chorus Ending 3
G |--------------------------------|--------------------------------|
D |--------------------------------|--------------------------------|
A |-7---7---7---7---7---7---7------|-7---7---7---7---7---7---7------|
E |-----------------------------7--|-----------------------------7--|x4

G |--------------------------------|--------------------------------|
D |--------------------------------|--------------------------------|
A |-0~~~---------------------------|--------------------------------|
E |--------------------------------|--------------------------------|


Order:
[00:01] Verse 1
[00:18] Verse 1
[00:34] Verse 2
[00:51] Chorus w/ ending 1
[01:22] Verse 1
[01:39] Verse 2
[01:55] Chorus w/ ending 2
[02:27] Verse 2
[02:43] Verse 2 w/ alt. ending
[02:59] Chorus w/ ending 3
            
Submit corrections

comments powered by Disqus
↑ Back to top | Pulp Bass for Mis - Shapes. Lyrics for acoustic guitar and electric guitar. Tablatures and chords are parodies/interpretations of the original songs. You may use it for private study, scholarship, research or language learning purposes only