» » »

Pulp, Help The Aged Bass tabs (ver.1)

Artists:  A B C D E F G H I J K L M N O P Q R S T U V W X Y Z # 

Help The Aged Bass tabs (ver.1)

Pulp Tabs
 Rating:
4/5 (5 votes)
Help The Aged lessons Tabs too difficult? Try these video lessons and learn fast
                --------------------------------!!!Warning!!!--------------------------------------------
--------------------------------!!!Warning!!!--------------------------------------------

Notes: I would suggest bringing it a step down to make the tone more similar to the real 
but for tabbing purposes, I left it unchanged.

Verse
G |--------------------------------|--------------------------------|
D |-5-7-5-----------5---5----------|-5-7-5-----------5---5----------|
A |---------------5-------------5--|---------------5-------------5--|
E |--------------------------------|--------------------------------|

G |--------------------------------|--------------------------------|
D |--------------------------------|--------------------------------|
A |-3---------------3---3----------|-3---------------3---3----------|
E |---------------3-------------3--|---------------3----------------|

G |--------------------------------|
D |--------------------------------|
A |-3---3---3---3---3---3---3---3--|
E |--------------------------------|

Verse Ending A
G |--------------------------------|
D |--------------------------------|
A |--------------------------------|
E |-3---3---3---3-5-3--------------|

Verse Ending B
G |--------------------------------|
D |--------------------------------|
A |--------------------------------|
E |-3-------------0-3---3----------|

Prechorus
G |--------------------------------|--------------------------------|
D |--------------------------------|-----------------5---5----------|
A |-3---------------3---3----------|---------------5----------------|
E |---------------3----------------|--------------------------------|

G |--------------------------------|--------------------------------|
D |--------------------------------|-5---5---5---5---5---5---5------|
A |-----------------3---3----------|-----------------------------5--|
E |---------------3----------------|--------------------------------|


G |--------------------------------|
D |-5-------5-------5--------------|
A |-----5-------5------------------|
E |--------------------------------|

Chorus
G |--------------------------------|--------------------------------|
D |--------------------------------|-------------------------0---0--|
A |-3-------3-------3-------3------|-3-------3-------3---3----------|
E |-------------3-3-------------3--|-------------3------------------|

G |-----------------------------2--|--------------------------------|
D |-2-------2-------2-------2------|-2---2---2-------2-----2-----2--|
A |-------------2-2----------------|-------------2-2-----2-----2----|
E |--------------------------------|--------------------------------|

G |--------------------------------|-0---0---0-------0-------0------|
D |-3---3---3-------3-------3------|-------------0-0-----0-------0--|
A |-------------3-3-----3-------3--|--------------------------------|
E |--------------------------------|--------------------------------|

G |-1---1---1---1-1-1---1---3---3--|-5---5---5---5-7-5--------------|
D |--------------------------------|--------------------------------|
A |--------------------------------|--------------------------------|
E |--------------------------------|--------------------------------|

G |--------------------------------|---------------------4----------|
D |--------------------------------|---------0-------2--------------|
A |-3-------3-------3-------3------|-3---------------------------2--|
E |-------------3-3-------------3--|--------------------------------|

G |-----------------------------2--|--------------------------------|
D |-2-------2-------2-------2------|-2---2---2-------2-----2-----2--|
A |-------------2-2----------------|-------------2-2-----2-----2----|
E |--------------------------------|--------------------------------|

G |--------------------------------|-0---0---0-------0-------0------|
D |-3---3---3-------3-------3------|-------------0-0-----0-------0--|
A |-------------3-3-----3-------3--|--------------------------------|
E |--------------------------------|--------------------------------|

G |-1---1---1---1-1-1---1---3---3--|-5------------------------------|
D |--------------------------------|--------------------------------|
A |--------------------------------|--------------------------------|
E |--------------------------------|--------------------------------|

Break
G |--------------------------------|-0---0---0---0-0-0---0---0---0--|
D |-3---3---3---3-3-3---3---3---3--|--------------------------------|
A |--------------------------------|--------------------------------|
E |--------------------------------|--------------------------------|

G |-2---2---2---2-2-2---2---2---2--|-3---3---3---3-3-3---3---3---3--|
D |--------------------------------|--------------------------------|
A |--------------------------------|--------------------------------|
E |--------------------------------|--------------------------------|

G |-3---3---3---3-3-3---3---3---3--|-5---5---5---5------------------|
D |--------------------------------|-----------------2---2---2---2--|
A |--------------------------------|--------------------------------|
E |--------------------------------|--------------------------------|

G |--------------------------------|-0---0---0---0---0---0---0---0--|
D |-3---3---3---3-3-3---3---3---3--|--------------------------------|
A |--------------------------------|--------------------------------|
E |--------------------------------|--------------------------------|

G |-0---0---0---0---0--------------|
D |--------------------------------|
A |--------------------------------|
E |--------------------------------|

Outro
G |-0---0---0---0-0-0---0---0---0--|-5---5---5---5-5-5---5---5---5--|
D |--------------------------------|--------------------------------|
A |--------------------------------|--------------------------------|
E |--------------------------------|--------------------------------|x2

G |-0---0---0---0-0-0---0---0---0--|-1---1---1---1-1-1---1---1---1--|
D |--------------------------------|--------------------------------|
A |--------------------------------|--------------------------------|
E |--------------------------------|--------------------------------|

G |--------------------------------|--------------------------------|
D |--------------------------------|--------------------------------|
A |-3------------------------------|---------------0-3--------------|
E |--------------------------------|--------------------------------|

G |--------------------------------|
D |--------------------------------|
A |-3------------------------------|
E |--------------------------------|

Order:
[00:02] Verse/Ending A
[00:20] Verse/Ending B
[00:37] Prechorus
[00:50] Chorus
[01:35] Verse/Ending B
[01:52] Prechorus
[02:06] Chorus
[02:49] Break
[03:17] Chorus
[04:01] Outro

This may not be 100% accurate, and corrections are welcome.
            
Submit corrections

comments powered by Disqus
↑ Back to top | Pulp Bass for Help The Aged. Lyrics for acoustic guitar and electric guitar. Tablatures and chords are parodies/interpretations of the original songs. You may use it for private study, scholarship, research or language learning purposes only