» » »

Pulp, Do You Remember The First Time Chords (ver.2)

Artists:  A B C D E F G H I J K L M N O P Q R S T U V W X Y Z # 

Do You Remember The First Time Chords (ver.2)

Pulp Tabs
 Rating:
4/5 (4 votes)
Do You Remember The First Time lessons Tabs too difficult? Try these video lessons and learn fast
1
                Tuning: standard NO CAPO
Chords Verse: G Am C
Chorus: G Am C Gm
Tab in background and at end of song... Listen to song to get timings!
e|-||-------------------------------------------------------------------|
B|-||-12------12--12--12------------------------------------------------|
G|-||----12----12--12--12-------12/14-12----12/14-12-------12/14-12-----|
D|-||-------12--12--12--12---12/14--------12/14------10-12/14------10---|
A|-||----------------------12-----------12------------------------------|
E|-||-------------------------------------------------------------------|

e|-||-----------------------------------------------------------------|
B|-||-------------------------------------------------12----12--------|
G|-||------12/14-12--------12/14-12--------12/14-12-----12---12-------|
D|-||-12/14---------13-12/14--------13-12/14--------------12---12-----|
A|-||-----------------------------------------------------------------|
E|-||-----------------------------------------------------------------|



                             G
You say you've got to go home
         Am             C               G
cos he's sitting on his own again this evening.
     Am                C                 G  
N' I know you're gonna let him bore your pants off again.
                             Am
Oh God, now it's half past eight,
          C
you'll be late.
                         G
But you say you're not sure,
         Am                     C             G
Though it makes good sense for you to live together.
          Am                     C                        G
Still you bought a toy that can reach the places he never goes.
                     Am
and now it's getting late.
           Cm
He's so straight.

G                    Am
Do you remember the first time?
                   C
I can't remember a worse time.
                        Gm
But you know that we've changed so much since then, oh yeah,
           G
we've grown.
                             Am
Now I don't care what you're doing,
                       C
No I don't care if you screw him.
                    Cm
Just as long as you save a piece for me,
oh yeah
G
ooooooo ooooo ooooooo
You say you've got to go home.

Well at least there's someone there that you can talk to.
And you never have to face up to the night on your own.
Jesus, it must be great to be straight.

Do you remember the first time?
I can't remember a worse time.
But you know that we've changed so much since then,
oh yeah,
we've grown.
Now I don't care what you're doing,
No I don't care if you screw him.
Just as long as you save a piece for me,
oh yeah
you wanna go home [4 x's]
[back to chorus]
oooooooh
you wanna go home
            
Submit corrections

comments powered by Disqus
↑ Back to top | Pulp Chords for Do You Remember The First Time. Lyrics for acoustic guitar and electric guitar. 1 Tablatures and chords are parodies/interpretations of the original songs. You may use it for private study, scholarship, research or language learning purposes only