» » »

Pulp, Dishes Bass tabs (ver.1)

Artists:  A B C D E F G H I J K L M N O P Q R S T U V W X Y Z # 

Dishes Bass tabs (ver.1)

Pulp Tabs
 Rating:
4.2/5 (5 votes)
Dishes lessons Tabs too difficult? Try these video lessons and learn fast
                -------------------------------------------------------------------------------
-------------------------------------------------------------------------------


Tuning: G D A E

verse 1:
G|-----------------------------------------------------------------------|
D|-3----------3--5-------3----------3--5------5--------3-------5----3--5-|
A|------------------------------------------5-------------3--5-----------|
E|-----------------------------------------------------------------------|

G|-----------------------------------------------------------------------|
D|-3----------3--5-------3----------3--5------5--------3-------5---3--5-5|
A|------------------------------------------5-------------3--5-----------|
E|-----------------------------------------------------------------------|

Chorus:
G|----------------------------------------------------------|
D|----------------3-3--0--3-3------------------2----3-3-3-2-|
A|-3-3--0--3-3--5-------------0-2-3-5------2-3--------------|
E|-------------------------------------3-5------------------|

G|----------------------------------------------------------|
D|----------------3-3--0--3-3------------------2----3-3-3-2-|
A|-3-3--0--3-3--5-------------0-2-3-5------2-3--------------|
E|-------------------------------------3-5------------------|

Verse 2:
G|-----------------------------------------------------------------------|
D|-3----------3--5-------3----------3--5------5--------3-------5----3--5-|
A|------------------------------------------5-------------3--5-----------|
E|-----------------------------------------------------------------------|

Chorus:
G|----------------------------------------------------------|
D|----------------3-3--0--3-3------------------2----3-3-3-2-|
A|-3-3--0--3-3--5-------------0-2-3-5------2-3--------------|
E|-------------------------------------3-5------------------|

G|----------------------------------------------------------|
D|----------------3-3--0--3-3------------------2----3-3-3-2-|
A|-3-3--0--3-3--5-------------0-2-3-5------2-3--------------|
E|-------------------------------------3-5------------------|

Bridge:
G|---------------------------------------------------------|
D|-3-----------------3-----------------3-----------------3-|
A|----------3-----------------3-----------------3----------|
E|---------------------------------------------------------|

G|-----------------|
D|-----------------|
A|-3-3-3-3-3-3-3-0-|
E|-----------------|

break:
G|----------------------------------------------------------|
D|----------------3-3--0--3-3------------------2----3-3-3-2-|
A|-3-3--0--3-3--5-------------0-2-3-5------2-3--------------|
E|-------------------------------------3-5------------------|

G|----------------------------------------------------------|
D|----------------3-3--0--3-3------------------2----3-3-3-2-|
A|-3-3--0--3-3--5-------------0-2-3-5------2-3--------------|
E|-------------------------------------3-5------------------|

G|------------------5-3-2---2-------------------------------|
D|----------------3-------5--------------------2----3-3-3-2-|
A|-3-3--0--3-3--5-------------0-2-3-5------2-3--------------|
E|-------------------------------------3-5------------------|

G|------------------5-3-2---2-------------------------------|
D|----------------3-------5--------------------2----3-3-3-2-|
A|-3-3--0--3-3--5-------------0-2-3-5------2-3--------------|
E|-------------------------------------3-5------------------|

G|----------------------------------------------------------|
D|------------------2----3-3-3-2-------------------2--3-3-3-|
A|-0-2-3-5------2-3---------------0-2-3-5------2-3----------|
E|----------3-5----------------------------3-5--------------|

Ending:
G|---------------|
D|-3--------3--5-|
A|---------------|
E|---------------|


| /  slide up
| \  slide down
| h  hammer-on
| p  pull-off
| ~  vibrato
| +  harmonic
| x  Mute note
===============================================================================
            
Submit corrections

comments powered by Disqus
↑ Back to top | Pulp Bass for Dishes. Lyrics for acoustic guitar and electric guitar. Tablatures and chords are parodies/interpretations of the original songs. You may use it for private study, scholarship, research or language learning purposes only