» » »

Pulp, Common People Bass tabs (ver.1)

Artists:  A B C D E F G H I J K L M N O P Q R S T U V W X Y Z # 

Common People Bass tabs (ver.1)

Pulp Tabs
 Rating:
4/5 (10 votes)
Common People lessons Tabs too difficult? Try these video lessons and learn fast
1
                

|NOTE| These do not represent the correct number of notes, listen to the song
and change when you hear it. * = A shorter way of writing it, repeat the notes
until you hear it change. Listen for rhythm.

G|---------------------------------------------------------------------------|
D|---------------------------------------------------------------------------|
A|3-33-3-33-3-33----------------------3-33-3-33-3-33-3-----------------------|
E|----------------3-33-3-33-3-33-3-33-------------------3-33-3-33-3-33-33-3--|

G|---------------------------------------------------------------------------|
D|---------------------------------------------------------------------------|
A|------------------------------------3-33-3-33-3-33-3-33--------------------|
E|3-33-3-33-3-33-1-11-1-11-1-11-1-11-------------------------3-33-3-33-3-33--|

G|---------------------------------------------------------------------------|
D|---------------------------------------------------------------------------|
A|3-3-3-3-3-3-3-3-3-------------------3-3-3-3-3-3-3-3------------------------|
E|------------------3-3-3-3-3-3-3-3-3------------------3-3-3-3-3-3-3-3-------|

G|---------------------------------------------------------------------------|
D|---------------------------------------------------------------------------|
A|------------------3-3-3-3-3-3-3-3-3--------------------3-3-3-3-3-3-3-3-3-3-|
E|1-1-1-1-1-1-1-1-1-------------------3-3-3-3-3-3-33-3-3---------------------|

G|---------------------------------------------------------------------------|
D|---------------------------------------------------------------------------|
A|----3*-------3*---3*---3*-------3*----3*-----------------------------------|
E|-3*----3*--1*---3*--3*----3*-1*----3*--------------------------------------|

Listen for rhythm.
            
Submit corrections

comments powered by Disqus
↑ Back to top | Pulp Bass for Common People. Lyrics for acoustic guitar and electric guitar. 1 Tablatures and chords are parodies/interpretations of the original songs. You may use it for private study, scholarship, research or language learning purposes only