» » »

Bad Cover Bass tabs (ver.1)

Artists:  A B C D E F G H I J K L M N O P Q R S T U V W X Y Z # 

Bad Cover Bass tabs (ver.1)

Pulp
Rating:
0/5 (0 votes)

Hard to play? Try these video lessons and learn fast.
                (Sion)
-------------------------------------------------------------------------------
-------------------------------------------------------------------------------


Tuning: G D A E

Intro:
G|-------------------------------------------------------------------|
D|-------------------------------------------------------------------|
A|-5-5-5-5---------5-5-5-5---------7-7-7-7---------------------------|
E|---------5-5-5-5---------5-5-5-5---------7-7-7-7--5-5-5-5--3-3-3-3-|

Verse 1:
G|-------------------------------------------------------------------|\
D|-------------------------------------------------------------------||x2
A|-5-5-5-5---------5-5-5-5---------7-7-7-7---------------------------||
E|---------5-5-5-5---------5-5-5-5---------7-7-7-7--5-5-5-5--3-3-3-3-|/

G|-------------------------------------------------------------------|
D|-------------------------------------------------------------------|
A|-3-3-3-3-3-3-3-3-----------------5-5-5-5-5-5-5-5-------------------|
E|-----------------5-5-5-5-5-5-5-5-----------------2-2-2-2-2-2-2-2---|

G|-------------------------------------------------------------------|
D|-------------------------------------------------------------------|
A|-3-3-3-3-3-3-3-3-----------------5-5-5-5-5-5-5-5-5-5-5-5--5-5-5--0-|
E|-----------------5-5-5-5-5-5-5-5-----------------------------------|

Chorus:
G|---------------------------------------------------------------------|
D|---------------------------------------------------------------------|
A|-5-5-5-5-5-5-5-5-5-5-5-5-5-5-5-0-------------------------------------|
E|---------------------------------7-7-7-7-7-7-7-7-7-7-7-7-7-5-5-5-3-3-|

G|---------------------------------------------------------------------|
D|---------------------------------------------------------------------|
A|---------------------------------------------------------------------|
E|-0-0-0-0-0-0-0-0-0-0-0-0-0-0-2-2-3-3-3-3-3-3-3-3-3-3-3-3-3-2-2-2-0-0-|

Verse 2:
G|-------------------------------------------------------------------|\
D|-------------------------------------------------------------------||x2
A|-5-5-5-5---------5-5-5-5---------7-7-7-7---------------------------||
E|---------5-5-5-5---------5-5-5-5---------7-7-7-7--5-5-5-5--3-3-3-3-|/

G|-------------------------------------------------------------------|
D|-------------------------------------------------------------------|
A|-3-3-3-3-3-3-3-3-----------------5-5-5-5-5-5-5-5-------------------|
E|-----------------5-5-5-5-5-5-5-5-----------------2-2-2-2-2-2-2-2---|

G|-------------------------------------------------------------------|
D|-------------------------------------------------------------------|
A|-3-3-3-3-3-3-3-3-----------------5-5-5-5-5-5-5-5-5-5-5-5--5-5-5--0-|
E|-----------------5-5-5-5-5-5-5-5-----------------------------------|

Chorus2:
G|---------------------------------------------------------------------|\
D|---------------------------------------------------------------------||
A|-5-5-5-5-5-5-5-5-5-5-5-5-5-5-5-0-------------------------------------||
E|---------------------------------7-7-7-7-7-7-7-7-7-7-7-7-7-5-5-5-3-3-||
                                                                        > x2
G|---------------------------------------------------------------------||
D|---------------------------------------------------------------------||
A|---------------------------------------------------------------------||
E|-0-0-0-0-0-0-0-0-0-0-0-0-0-0-2-2-3-3-3-3-3-3-3-3-3-3-3-3-3-2-2-2-0-0-|/

Break(it's like a later...): 
G|---------------------------------------------------------------------|\
D|---------------------------------------------------------------------||
A|-5-5-5-5-5-5-5-5-5-5-5-5-5-5-5----------2-------------2--------------||
E|-------------------------------5-0-0--0---3--5-0-0--0---3--5-------5-||
                                                                        > x2
G|-----------------------------------------------------|                |
D|-----------------------------------------------------|                |
A|--------------------------------5-5-5-5-5-5-5-5------|                |
E|-3-3--3-3-3-3--3-3-3-3-3-3-3-3-----------------------|                /

Ending:
G|-----------------|\
D|-----------------||
A|-5-5-5-5---------||repeat until the end
E|---------5-5-5-5-|/

Great song, enjoy it!

| /  slide up
| \  slide down
| h  hammer-on
| p  pull-off
| ~  vibrato
| +  harmonic
| x  Mute note
===============================================================================
            
Hard to play? Try these video lessons and learn fast. | Correct




comments powered by Disqus
↑ Back to top | Tablatures and chords are parodies/interpretations of the original songs. You may use it for private study, scholarship, research or language learning purposes only