>
 >
We Dont Have To Look Back Now 1

We Dont Have To Look Back Now 1 Guitar Tabs

Puddle Of Mudd - We Dont Have To Look Back Now 1 chords, tabs, tablatures, lyrics

Guitar lessons | Add/correct | Request | Top 50 tabs Artists:  A B C D E F G H I J K L M N O P Q R S T U V W X Y Z 0-9

We Dont Have To Look Back Now 1 Guitar Tabs – Puddle Of Mudd

CD, Sheet music, Poster

Do you like We Dont Have To Look Back Now 1? Share with your friends now
ChordsChords v2TabsTabs v2Ukulele
I'm 99% sure this is exact. please rate and comment
Tuning: standard
Intro piano (this is only guitar parts)
e|------------------------2----2-2----2------------------------------------|
B|----3-------3-----------3----3-3----3------------1------1------1------1--|
G|--0-------0-------------2----2-2----2------------------------------------|
D|--------2---------------0----0-0----0----------3------3------3------3----|
A|---------------------------------------------3------3------3------3------|
E|-------------------------------------------------------------------------|

Chorus
e|------------------------3-----3-----3--3-3--3---1-----1-----1--1-1--1---|
B|1-----1-----1--1-1--1---3-----3-----3--3-3--3---3-----3-----3--3-3--3---|
G|0-----0-----0--0-0--0---4-----4-----4--4-4--4---2-----2-----2--2-2--2---|
D|2-----2-----2--2-2--2---5-----5-----5--5-5--5---0-----0-----0--0-0--0---|
A|3-----3-----3--3-3--3---5-----5-----5--5-5--5---------------------------|
E|------------------------3-----3-----3--3-3--3---------------------------|

e|1-----1-----1--1-1--1---------------------------3-----3-----3--3-3--3---|
B|1-----1-----1--1-1--1---1-----1-----1--1-1--1---3-----3-----3--3-3--3---|
G|2-----2-----2--2-2--2---0-----0-----0--0-0--0---4-----4-----4--4-4--4---|
D|3-----3-----3--3-3--3---2-----2-----2--2-2--2---5-----5-----5--5-5--5---|
A|3-----3-----3--3-3--3---3-----3-----3--3-3--3---5-----5-----5--5-5--5---|
E|1-----1-----1--1-1--1---------------------------3-----3-----3--3-3--3---|

e|-1-----1-----1--1-1--1---1-1-1-1--3-3-3-3-------|
B|-3-----3-----3--3-3--3---1-1-1-1--3-3-3-3--1~---|
G|-2-----2-----2--2-2--2---2-2-2-2--4-4-4-4--0~---|
D|-0-----0-----0--0-0--0---3-3-3-3--5-5-5-5--2~---|
A|-------------------------3-3-3-3--5-5-5-5--3~---|
E|-------------------------1-1-1-1--3-3-3-3-------|

Verse
e|3-----3-----3--3-3--3---------------------------0-----0-----0--0-0--0---|
B|3-----3-----3--3-3--3---1-----1-----1--1-1--1---3-----3-----3--3-3--3---|
G|4-----4-----4--4-4--4---0-----0-----0--0-0--0---3-----3-----3--3-3--3---|
D|5-----5-----5--5-5--5---2-----2-----2--2-2--2---3-----3-----3--3-3--3---|
A|5-----5-----5--5-5--5---3-----3-----3--3-3--3---0-----0-----0--0-0--0---|
E|3-----3-----3--3-3--3---------------------------------------------------|

e|------------------------3-----3-----3--3-3--3---------------------------|
B|1-----1-----1--1-1--1---3-----3-----3--3-3--3---1-----1-----1--1-1--1---|
G|0-----0-----0--0-0--0---4-----4-----4--4-4--4---0-----0-----0--0-0--0---|
D|2-----2-----2--2-2--2---5-----5-----5--5-5--5---2-----2-----2--2-2--2---|
A|3-----3-----3--3-3--3---5-----5-----5--5-5--5---3-----3-----3--3-3--3---|
E|------------------------3-----3-----3--3-3--3---------------------------|

e|0-----0-----0--0-0--0---------------------------2-----2-----2--2-2--2---|
B|3-----3-----3--3-3--3---1-----1-----1--1-1--1---3-----3-----3--3-3--3---|
G|3-----3-----3--3-3--3---0-----0-----0--0-0--0---2-----2-----2--2-2--2---|
D|3-----3-----3--3-3--3---2-----2-----2--2-2--2---0-----0-----0--0-0--0---|
A|0-----0-----0--0-0--0---3-----3-----3--3-3--3---------------------------|
E|------------------------------------------------------------------------|

e|-1-----1-----1--1-1--1---------------------------------|
B|-1-----1-----1--1-1--1--------1------1------1------1---|
G|-2-----2-----2--2-2--2---------------------------------|
D|-3-----3-----3--3-3--3------3------3------3------3-----|
A|-3-----3-----3--3-3--3----3------3------3------3-------|
E|-1-----1-----1--1-1--1---------------------------------|


Chorus x1

Bridge
e|-----------------3-3-3-3-3-3-3-3--0-0-0-0-0-0-0-0--3-3-3-3-3-3-3-3------|
B|1-1-1-1-1-1-1-1--3-3-3-3-3-3-3-3--3-3-3-3-3-3-3-3--3-3-3-3-3-3-3-3------|
G|0-0-0-0-0-0-0-0--4-4-4-4-4-4-4-4--3-3-3-3-3-3-3-3--4-4-4-4-4-4-4-4------|
D|2-2-2-2-2-2-2-2--5-5-5-5-5-5-5-5--3-3-3-3-3-3-3-3--5-5-5-5-5-5-5-5------|
A|3-3-3-3-3-3-3-3--5-5-5-5-5-5-5-5--0-0-0-0-0-0-0-0--5-5-5-5-5-5-5-5------|
E|-----------------3-3-3-3-3-3-3-3-------------------3-3-3-3-3-3-3-3------|
   . . . . . . . .  . . . . . . . .  . . . . . . . .  . . . . . . . .

e|2-2-2-2-2-2-2-2--3-3-3-3-3-3-3-3----------1-1-1--3-3-3-3-3-3---0-0--3-3-3|
B|3-3-3-3-3-3-3-3--3-3-3-3-3-3-3-3--1-1-1-1-1-1-1--3-3-3-3-3-3---3-3--3-3-3|
G|2-2-2-2-2-2-2-2--4-4-4-4-4-4-4-4--0-0-0-0-2-2-2--4-4-4-4-4-4---3-3--4-4-4|
D|0-0-0-0-0-0-0-0--5-5-5-5-5-5-5-5--2-2-2-2-3-3-3--5-5-5-5-5-5---3-3--5-5-5|
A|-----------------5-5-5-5-5-5-5-5--3-3-3-3-3-3-3--5-5-5-5-5-5---0-0--5-5-5|
E|-----------------3-3-3-3-3-3-3-3----------1-1-1--3-3-3-3-3-3--------3-3-3|
  . . . . . . . .  . . . . . . . .

e|-1---------|
B|-3---------|
G|-2---------|
D|-0---------|
A|-----------|
E|-----------|

Piano solo (play chorus x1 in background)

Chorus x1

outro
e|-------------------------3-----3-----3--3-3--3---1-----1-----1--1-1--1---|
B|-1-----1-----1--1-1--1---3-----3-----3--3-3--3---3-----3-----3--3-3--3---|
G|-0-----0-----0--0-0--0---4-----4-----4--4-4--4---2-----2-----2--2-2--2---|
D|-2-----2-----2--2-2--2---5-----5-----5--5-5--5---0-----0-----0--0-0--0---|
A|-3-----3-----3--3-3--3---5-----5-----5--5-5--5---------------------------|
E|-------------------------3-----3-----3--3-3--3---------------------------|

e|-1-1-1-1--3-3-3-3------|
B|-1-1-1-1--3-3-3-3------|
G|-2-2-2-2--4-4-4-4------|
D|-3-3-3-3--5-5-5-5------|      x2
A|-3-3-3-3--5-5-5-5------|
E|-1-1-1-1--3-3-3-3------|

e|-1~---|
B|-0~---|
G|-2~---|
D|-3~---|
A|------|
E|------|


************************************
| .   palm mute
| /   slide up
| \   slide down
| h   hammer-on
| p   pull-off
| ~   vibrato
| +   harmonic
| x   Mute note
| b   Bend
************************************





Comments


Popular Puddle Of Mudd tabs & chords
She Hates Me 1 Bass Tabs
Blurry 2 Chords
Blurry Tabs
Famous Intro Tabs
Nothing Left To Lose Intro Tabs
She Hates Me 10 Tabs
She Hates Me 2 Tabs
She Hates Me 7 Tabs
She Hates Me 9 Tabs
Psycho Ukulele


Song lyrics



↑ Back to top | Tablatures and chords are parodies/interpretations of the original songs. You may use it for private study, scholarship, research or language learning purposes only
© 2014 AZChords.com Contact us | Privacy policy | DMCA | Add/correct tabs | Request tabs | Top 50 tabs