» » »

Puddle Of Mudd, Stoned Tabs (ver.2)

Artists:  A B C D E F G H I J K L M N O P Q R S T U V W X Y Z # 

Stoned Tabs (ver.2)

Puddle Of Mudd Tabs
Rating:
0/5 (0 votes)
Stoned lessons Tabs too difficult? Try these video lessons and learn fast
                || -- Puddle Of Mudd -- ||
|| -- --- Stoned --- -- || 
|| --    Slash285.   -- ||
|| --   Jacob G.Lee  -- ||

Tune your guitar down to the key of C#!!

Intro

E|-x--x-x-x-x-x-x-x-x-x-xx-x-x-x-x--|    x2
B|-x--x-x-x-x-x-x-x-x-x-xx-x-x-x-x--|    x2
G|-x--x-x-x-x-x-x-7-7-7-77-x-x-x-x--|    x2
D|-2--2-2-2-5-4-2-7-7-7-77-8-7-5-2--|    x2
A|-2--2-2-2-5-4-2-5-5-5-55-8-7-5-2--|    x2
E|-0--0-0-0-3-2-0-x-x-x-xx-6-5-3-0--|    x2


Verse
   x          x x x
E|--------|----------|          E|---------------------|
B|--------|----------|          B|---------------------|
G|--------|----------|          G|---------------------|
D|-2------|---5-5-2--|  X3 -->  D|--2-5-7-8-9-9-9-8-2--|
A|-2--x13-|---5-5-2--|          A|--2-5-7-8-9-9-9-8-2--|
E|-0------|---3-3-0--|          E|--0-3-5-6-8-9-8-6-0--|


Bridge

E|----------|---------|---------|
B|----------|---------|---------|
G|----------|---------|---------|
D|--2--x15--|--7--x8--|--5--x8--|
A|--2--x15--|--7--x8--|--5--x8--|
E|--0--x15--|--5--x8--|--3--x8--|


Chorus

E|-------------------------------------------------------------------|
B|-------------------------------------------------------------------|
G|----------------------------------7-7-7-7-7-7-7-7------------------|
D|--2-2-2-2-2-2-2-2-5-5-5-5-5-5-5-5-7-7-7-7-7-7-7-7-7-7-7-7-7-7-7-7--|
A|--2-2-2-2-2-2-2-2-5-5-5-5-5-5-5-5-5-5-5-5-5-5-5-5-7-7-7-7-7-7-7-7--|
E|--0-0-0-0-0-0-0-0-3-3-3-3-3-3-3-3-x-x-x-x-x-x-x-x-5-5-5-5-5-5-5-5--|

Lyrics
_____
Intro
_____
Verse

I gotta get this sh*t off my chest
Another sucker behind a desk
You try to tell me that you know best

Snap your fingers
Snap your neck
The sunshine has always been an enemy
My life's a chemical insanity
Sundown is bringing out the freak in me
I'm wired, getting higher

Chorus

So check your attitude at the front door
I'm really getting tired of taking all of your sh*t while I'm sober
I'm thinking that I'd rather be stoned
Yeah

Verse

I gotta get this sh*t off my back
I'm runnin' circles but I won't crack
So f'ckin' sick of your politics
Snap your fingers
Snap your neck
The sunshine has always been an enemy
My life's a chemical insanity
Sundown is bringing out the freak in me
I'm wired, getting higher

Chorus

So check your attitude at the front door
I'm really getting tired of taking all of your sh*t while I'm sober
I'm thinking that I'd rather be stoned
Yeah

Bridge

Why you always waste my time oh no
Now I'm thinkin that I'd rather be stoned
I am, I am, I am my worst epitome, wired, f**king higer

Chorus

So check your attitude at the front door
I'm really getting tired of taking all of your sh*t while I'm sober
I'm thinking that I'd rather be stoned
Yeah x2

Outro

Snap your fingers
Snap you neck
Rather be stoned x2

The end!!

Thank rate my tab! ;)
____________________
            

comments powered by Disqus
↑ Back to top | Puddle Of Mudd Tabs for Stoned. Lyrics for acoustic guitar and electric guitar. Tablatures and chords are parodies/interpretations of the original songs. You may use it for private study, scholarship, research or language learning purposes only