» » »

Nobody Told Me Tabs (ver.1)

Artists:  A B C D E F G H I J K L M N O P Q R S T U V W X Y Z # 

Nobody Told Me Tabs (ver.1)

Puddle Of Mudd
Rating:
0/5 (0 votes)

Hard to play? Try these video lessons and learn fast.
                Drop Db:
Db Ab Db Gb Bb Eb

Intro:
gtr. 1
Eb--------||------------------------------------------------------------------------------------------------
Db--------||------------------------------------------------------------------------------------------------
Db--------||------------------------------------------------------------------------------------------------
Db-0-----||--0----------------------6-------------------------5------------------------------------------
Ab-0-----||--0----------------------6-------------------------5------------------------------------------
Db-0-----||--0----------------------6-------------------------5------------------------------------------

gtr. 2
Eb--------||------------------------------------------------------------------------------------------------
Bb--------||------------------------------------------------------------------------------------------------
Gb--------||------------------------------------------------------------------------------------------------
Db-0-----||-0—7—0—7—0--7/8—8—0—0—8—0—5—0—5—0—6—0—6—0—0--6
Ab-0-----||------------------------------------------------------------------------------------------------
Db-0-----||------------------------------------------------------------------------------------------------

Verse 1:  no guitar is played, bass only 

Chorus:  (listen for timing) (gtr.2 plays in some parts distantly intro gtr.2)
Eb--------------------------------------------------------------------------------------------------------
Bb--------------------------------------------------------------------------------------------------------
Gb--------------------------------------------------------------------------------------------------------
Db—0-----------6------------5-------------------------------------------------------------------------
Ab—0-----------6------------5-------------------------------------------------------------------------
Db—0-----------6------------5-------------------------------------------------------------------------




Verses 2&3: (heavy distortion)
Eb------------------------------------------------------------------------------------
Bb------------------------------------------------------------------------------------
Gb------------------------------------------------------------------------------------
Db-0-0-0-0-0-0-0-0-0-0-0-0-6-6-6-6-6-6-6-5--5-5-5-5-5--5-5----------
Ab-0-0-0-0-0-0-0-0-0-0-0-0-6-6-6-6-6-6-6-5--5-5-5-5-5--5-5----------
Db-0-0-0-0-0-0-0-0-0-0-0-0-6-6-6-6-6-6-6-5--5-5-5-5-5--5-5---0-0---

Bridge:  palm muted x3, after then distortion (work it out, timing & strumming)

Eb---------------------------------------------------------------------------------------------------------------
Bb---------------------------------------------------------------------------------------------------------------
Gb------------------------------------- 5-5-5-5------------------------------------------5-5-5-5------------
Db-7-7-7-0-5-5-5-5-0-5-5-5-0—3-3-3-3------7-7-7-0-5-5-5-5-0-5-5-5-0—3-3-3-3-----------
Ab-5-5-5-0-3-3-3-3-0-3-3-3-0-------------------5-5-5-0-3-3-3-3-0-3-3-3-0-----------------------
Db---------------------------------------------------------------------------------------------------------------
            
Hard to play? Try these video lessons and learn fast. | Correct




comments powered by Disqus
↑ Back to top | Tablatures and chords are parodies/interpretations of the original songs. You may use it for private study, scholarship, research or language learning purposes only