» » »

Puddle Of Mudd, It Was Faith Tabs (ver.1)

Artists:  A B C D E F G H I J K L M N O P Q R S T U V W X Y Z # 

It Was Faith Tabs (ver.1)

Puddle Of Mudd Tabs
 Rating:
4/5 (4 votes)
It Was Faith lessons Tabs too difficult? Try these video lessons and learn fast
                Puddle Of Mudd - It Was Faith
Album -Famous

Intro

Guitar 2
-------15----15----19-15-15----15------------------|
----------13----13----------13----13-8-13----------|
---------------------------------------------------|
---------------------------------------------------|
---------------------------------------------------|
---------------------------------------------------|

Guitar 1
---------------------------------------------------|
---------------------------------------------------|
-5-5-5/7-------------------------------------------|
-5-5-5/7-7-7--555----------------------------------|
-3-3-3/5-7-7--555----------------------------------|
---------7-7--555----------------------------------|

Verse 1

---------------------------------------------------|
---------------------------------------------------|
-5-5-5/7-------------------------------------------|    X 3
-5-5-5/7-7-7--555----------------------------------|
-3-3-3/5-7-7--555----------------------------------|
---------7-7--555----------------------------------|

Pre-Chorus
---------------------------------------------------|
---------------------------------------------------|
-5-5-5/7-------------------------------------------|
-5-5-5/7-7-7--555--33333--555--00-22---------------|
-3-3-3/5-7-7--555--33333--555--00-22---------------|
---------7-7--555--33333--555--00-22---------------|

Chorus
---------------------------------------------------|
---------------------------------------------------|
-------5-5-5---------------------------------------|
--3-3--5-5-5-7-7--555------------------------------|  X 2
--3-3--3-3-3-7-7--555------------------------------|
--3-3--------7-7--555------------------------------|


---------------------------------------------------|
---------------------------------------------------|
---------------------------------------------------|
-22-33-7-7-5-5-3-----------------------------------|
-22-33-7-7-5-5-3-----------------------------------|
-22-33-7-7-5-5-3-----------------------------------|


Intro

Guitar 2
-------15----15----19-15-15----15------------------|
----------13----13----------13----13-8-13----------|
---------------------------------------------------|
---------------------------------------------------|
---------------------------------------------------|
---------------------------------------------------|

Guitar 1
---------------------------------------------------|
---------------------------------------------------|
-5-5-5/7-------------------------------------------|
-5-5-5/7-7-7--555----------------------------------|
-3-3-3/5-7-7--555----------------------------------|
---------7-7--555----------------------------------|

Verse 1

---------------------------------------------------|
---------------------------------------------------|
-5-5-5/7-------------------------------------------|    X 3
-5-5-5/7-7-7--555----------------------------------|
-3-3-3/5-7-7--555----------------------------------|
---------7-7--555----------------------------------|


Pre-Chorus
---------------------------------------------------|
---------------------------------------------------|
-5-5-5/7-------------------------------------------|
-5-5-5/7-7-7--555--33333--555--00-22---------------|
-3-3-3/5-7-7--555--33333--555--00-22---------------|
---------7-7--555--33333--555--00-22---------------|

Chorus

Guitar 1
---------------------------------------------------|
---------------------------------------------------|
-------5-5-5---------------------------------------|
--3-3--5-5-5-7-7--555------------------------------|  X 2
--3-3--3-3-3-7-7--555------------------------------|
--3-3--------7-7--555------------------------------|


---------------------------------------------------|
---------------------------------------------------|
---------------------------------------------------|
-22-33-7-7-5-5-3-----------------------------------|
-22-33-7-7-5-5-3-----------------------------------|
-22-33-7-7-5-5-3-----------------------------------|

Guitar 2
---------------------------------------------------|
-----1313131313--1313131313--13--13----------------|
--16-----------16----------16--16------------------|
---------------------------------------------------|
---------------------------------------------------|
---------------------------------------------------|


Bridge

Guitar 1
---------------------------------------------------|
---------------------------------------------------|
---------------------------------------------------|
-0000--333--777--555--0000-333-777-555-777-555-3---|
-0000--333--777--555--0000-333-777-555-777-555-3---|
-0000--333--777--555--0000-333-777-555-777-555-3---|


Guitar 2
---------------------------------------------------|
-----1313131313--1313131313--13--13----------------|
--16-----------16----------16--16------------------|
---------------------------------------------------|
---------------------------------------------------|
---------------------------------------------------|


Verse 1

---------------------------------------------------|
---------------------------------------------------|
-5-5-5/7-------------------------------------------|    X 3
-5-5-5/7-7-7--555----------------------------------|
-3-3-3/5-7-7--555----------------------------------|
---------7-7--555----------------------------------|


Pre-Chorus
---------------------------------------------------|
---------------------------------------------------|
-5-5-5/7-------------------------------------------|
-5-5-5/7-7-7--555--33333--555--00-22---------------|
-3-3-3/5-7-7--555--33333--555--00-22---------------|
---------7-7--555--33333--555--00-22---------------|

Chorus

Guitar 1
---------------------------------------------------|
---------------------------------------------------|
-------5-5-5---------------------------------------|
--3-3--5-5-5-7-7--555------------------------------|  X 2
--3-3--3-3-3-7-7--555------------------------------|
--3-3--------7-7--555------------------------------|


---------------------------------------------------|
---------------------------------------------------|
---------------------------------------------------|
-22-33-7-7-5-5-7-7-5-5-----------------------------|
-22-33-7-7-5-5-7-7-5-5-----------------------------|
-22-33-7-7-5-5-7-7-5-5-----------------------------|


Fire_Death enjoy the song!!!!!
            
Submit corrections

comments powered by Disqus
↑ Back to top | Puddle Of Mudd Tabs for It Was Faith. Lyrics for acoustic guitar and electric guitar. Tablatures and chords are parodies/interpretations of the original songs. You may use it for private study, scholarship, research or language learning purposes only