» » »

Freak Of The World Tabs (ver.1)

Artists:  A B C D E F G H I J K L M N O P Q R S T U V W X Y Z # 

Freak Of The World Tabs (ver.1)

Puddle Of Mudd
Rating:
4/5 (1 vote)

Hard to play? Try these video lessons and learn fast.
                
INTRO... Effect Pedal needed or just carefully palm mute...
E-----------------------------------------------|
B-----------------------------------------------|
G-----------------------------------------------|
D-----------------------------------------------|
A-----------------------------------------------|
D--2-2-2-2-2-2-2---12-12-12-12-12-12---14-14-14-|

Main Riff
E------------|
B------7---9-|
G------7---9-|
D--2---5---7-|
A--2---------|
D--2---------|

***********************
"Don't want the sun to shine upon my face..."

PALM MUTED

E------------|
B------7---9-|
G------7---9-|
D--2---5---7-|
A--2---------|
D--2---------|

************************************
"And I crawl and I scr*pe and I feel for you..."

E----------------|
B----------------|
G--7---6---5---4-|
D--7---6---5---4-|
A--5---4---3---2-|
D----------------|

**********************
"I'm a freak... I'm the freak of the world"

E----x-------------------------------|
B----x---7-7-7-7---------------------|
G----x---7-7-7-7---------------------|
D--2-x---5-5-5-5---7-7-7---5-5-5---0-|
A--2-x-------------7-7-7---5-5-5---0-|
D--2-x-------------7-7-7---5-5-5---0-|

**********************************************
"And there is nothing you can say..."

E--------|
B--------|
G--5---2-|
D--5---2-|
A--3---2-|
D--------|

**********************
"...see your eyes and thier lazy haze..."

E--21-21-21-21/0-|
B----------------|
G----------------|
D----------------|
A----------------|
D----------------|
            
Hard to play? Try these video lessons and learn fast. | Correct




comments powered by Disqus
↑ Back to top | Tablatures and chords are parodies/interpretations of the original songs. You may use it for private study, scholarship, research or language learning purposes only