» » »

Famous Bass tabs (ver.1)

Artists:  A B C D E F G H I J K L M N O P Q R S T U V W X Y Z # 

Famous Bass tabs (ver.1)

Puddle Of Mudd
Rating:
4/5 (1 vote)

Hard to play? Try these video lessons and learn fast.
                -------

song- Famous
band- Puddle Of Mudd
album- Famous

Drop Db (Db Ab Db Gb)


Intro

|-------------------------------------|-------------|
|----------------REST-----------------|-------------|
|-------------------------------------|-------------|
|-------------------------------------|-----3-3-0-0-|

 /---------------4x------------\

|---------------|---------------|
|---------------|---------------|
|---------------|---------------|
|0--0-0-0-0-5-0-|3--3-3-3-3-5-0-|


Verse 1

 /--------------------------2x-------------------------\

|---------------------------|---------------------------|
|---------------------------|---------------------------|
|---------------------------|---------------------------|
|0--0-0-0-0-0-0-0-0-0-0-3-0-|5--5-5-5-5-5-5-8-8-8-8-8-8-|


Pre-Chorus 1

|---------------------------|
|---------------------------|
|---------------------------|
|0-3--0-0-3--0-3-3-3-0-3-7--|


Chorus 1

|-----------------|-----------------|-----------------|--------------|
|-----------------|-----------------|-----------------|--------------|
|-----------------|1--1-1-1-1-1-1-1-|-----------------|--------------|
|0--0-0-0-0-0-0-0-|-----------------|3--3-3-3-3-3-3-3-|6-6-6-6-6-5-3-|

|-----------------|-----------------|-----------------|--------------|
|-----------------|-----------------|-----------------|--------------|
|-----------------|1--1-1-1-1-1-1-1-|-----------------|--------------|
|0--0-0-0-0-0-0-0-|-----------------|3--3-3-3-3-3-3-3-|6-6-6-6-6-5-3-|

 /---------------2x------------\

|---------------|---------------|
|---------------|---------------|
|---------------|---------------|
|0--0-0-0-0-5-0-|3--3-3-3-3-5-0-|


Verse 2

 /--------------------------2x-------------------------\

|---------------------------|---------------------------|
|---------------------------|---------------------------|
|---------------------------|---------------------------|
|0--0-0-0-0-0-0-0-0-0-0-3-0-|5--5-5-5-5-5-5-8-8-8-8-8-8-|


Pre-Chorus 2

|---------------------------|
|---------------------------|
|---------------------------|
|0-3--0-0-3--0-3-3-3-0-3-7--|


Chorus 2

|-----------------|-----------------|-----------------|--------------|
|-----------------|-----------------|-----------------|--------------|
|-----------------|1--1-1-1-1-1-1-1-|-----------------|--------------|
|0--0-0-0-0-0-0-0-|-----------------|3--3-3-3-3-3-3-3-|6-6-6-6-6-5-3-|

|-----------------|-----------------|-----------------|--------------|
|-----------------|-----------------|-----------------|--------------|
|-----------------|1--1-1-1-1-1-1-1-|-----------------|--------------|
|0--0-0-0-0-0-0-0-|-----------------|3--3-3-3-3-3-3-3-|6-6-6-6-6-5-3-|

 /---------------2x------------\

|---------------|---------------|
|---------------|---------------|
|---------------|---------------|
|0--0-0-0-0-5-0-|3--3-3-3-3-5-0-|


Bridge

|------------------------|------------------------|----------------|
|------------------------|------------------------|----------------|
|1-1-1-1-1-1-1-1-1-1-1-1-|3-3-3-3-----------------|----------------|
|------------------------|--------0-0-0-0-0-0-0-0-|0-0-0-0-0-0-0-0-|

|------------------------|------------------------|
|------------------------|------------------------|
|1-1-1-1-1-1-1-1-1-1-1-1-|3-3-3-3-3-3-3-3-3-3-3-3-|
|------------------------|------------------------|

|------------------------|--------------------------------|
|------------------------|--------------------------------|
|------------------------|1-1-1-1-1-1-1-1-3-3-3-3-5-5-5-5-|
|5-5-5-5-5-5-5-5-5-5-5-5-|--------------------------------|

|-------------------------------------|
|----------------REST-----------------|
|-------------------------------------|
|-------------------------------------|


Chorus 3

|-----------------|-----------------|-----------------|--------------|
|-----------------|-----------------|-----------------|--------------|
|-----------------|1--1-1-1-1-1-1-1-|-----------------|--------------|
|0--0-0-0-0-0-0-0-|-----------------|3--3-3-3-3-3-3-3-|6-6-6-6-6-5-3-|

|-----------------|-----------------|-----------------|--------------|
|-----------------|-----------------|-----------------|--------------|
|-----------------|1--1-1-1-1-1-1-1-|-----------------|--------------|
|0--0-0-0-0-0-0-0-|-----------------|3--3-3-3-3-3-3-3-|6-6-6-6-6-5-3-|

|-----------------|-----------------|-----------------|--------------|
|-----------------|-----------------|-----------------|--------------|
|-----------------|1--1-1-1-1-1-1-1-|-----------------|--------------|
|0--0-0-0-0-0-0-0-|-----------------|3--3-3-3-3-3-3-3-|6-6-6-6-6-5-3-|

|-----------------|-----------------|-----------------|--------------|
|-----------------|-----------------|-----------------|--------------|
|-----------------|1--1-1-1-1-1-1-1-|-----------------|--------------|
|0--0-0-0-0-0-0-0-|-----------------|3--3-3-3-3-3-3-3-|6-6-6-6-6-5-3-|

 /---------------4x------------\

|---------------|---------------|----------|
|---------------|---------------|----------|
|---------------|---------------|----------|
|0--0-0-0-0-5-0-|3--3-3-3-3-5-0-|8-8-3-3-0-|


Somethin like dat. It really ez. Hope u ppl enjoy!
            
Hard to play? Try these video lessons and learn fast. | Correct




comments powered by Disqus
↑ Back to top | Tablatures and chords are parodies/interpretations of the original songs. You may use it for private study, scholarship, research or language learning purposes only